Oops, an error
Loading. Please wait.

Oye Cantinero Tab

version 2
version 2

Whole song

by El Tri
241 views 1 this week
no commentswrite comment
1 2 3 4 5
3 more votes to show rating
add to favorites
launch autoscroll
font size
0
reset
how to read this tab
guitar tuner
×
Best way to learn
"Oye Cantinero"
Autoscroll
slow
fast
+/-
esc
set tempo
stop
-------------------------------------------------------
-------------------------------------------------------
-------------------------------------------------------
---0-1-2-0-1-2-0---------O-P-2-------0-----------------
-2---------------2-1-0---------0-1-2---2-1-0-------0-1-
-----------------------3---------------------3-0-0-----

           4 VECES                        2 VECES     
     RIT 1 ---------| 4             RIT 2 --------|
-------------------------------------------------------
-------------------------------------------------------
------------------------------------0-1-2-----4---4----
-----0-1-2------------------------2-------0-0---0------
-2-2-----------4---5-----------------------------------
-----------O-0---0-------------------------------------           

RIT I (2 VECES)         RIT 3------|   RIT 4---------|
-------------------------------------------------------
-------------------------------------------------------
-------------------------4-4-6-6-4-4---2-2-4-4-2-2-----
--------------------4-2--2-2-2-2-2-2---0-0-0-0-0-0--2--
------------------0---------------------------------0--


 RIT 5------------------|  RIT 6  (AQUI VA EL REQUINTO)
-------------------------------------------------------
-------------------------------------------------------
-------------------------------------------------------
-2-2-2-2-2---------0-P-2-------------------------------
-----------2-1-0------------0-1-2----------------------
-----------------3-------------------------------------

DESPUES DEL REQUINTO SIGUEN 2 VECES EL RIT 1 2 3 4 5  6
Y DESPUES SIGUE EL REQUINTO FINAL Y FINALIZA CON EL ACORDE MI. 
SI QUIEREN EL REQUINTO DE ENMEDIO ESCRIBAN A DISTROY@ 
SI QUIEREN REQUINTO DE OTRAS ROLAS TAMBIIEN ESCRIBAN BANDA 
ESPERO LES PASE ESTA ROLA Y ¡QUE VIVA EL RACANROL!
Suggest correction
Give kudos to tab author, rate the tab!
1 2 3 4 5
comments
print report bad tab
guest
You may want to rate the tab now too:
select rating
Wanna post a correction for this tab? Suggest correction