Oops, an error
Loading. Please wait.

Oye Cantinero Tab

version 3
version 3

Whole song

by El Tri
300 views 1 this week
no commentswrite comment
1 2 3 4 5
1 last vote to show rating
add to favorites
launch autoscroll
font size
0
reset
how to read this tab
guitar tuner
Autoscroll
slow
fast
+/-
esc
set tempo
stop
Hola de nuevo:

esta cancion fue una peticion de un chavo y no recuerdo
su nombre pero que me disculpe por la tardansa pero esta 
lista y completa yo se que no tiene ningun error esta al 100%
solo denle despacio y les dara un buen resultado.


ACORDES:   

CUERDAS   :654321
NOTAS     :EADGBe

E         -022100-
A         -002220-
B         -224442-


|------|
|NOTA: |
|---------------------------------------------------------------------------------------------------------------------------|
|h: es 'hammer-on' y significa literalmente martilleo. La nota que esta antes de la h la tocas poniendo el dedo en el       |
|traste que dice el número antes de la h y la haces vibrar. Luego pones OTRO dedo en la nota del número después de          |
|la h pero NO vuelves a hacer vibrar la cuerda. Entonces como usaste una misma vibración para las dos notas, se             |
|hace un efecto de ligado que se usa mucho en trova.                                                                        |
|---------------------------------------------------------------------------------------------------------------------------|
|p: es 'pull-off' y significa literalmente jalar. Es exactamente lo mismo que la h pero al revés. Puedes notar que el       |
|efecto de ligado de la h siempre va de un numero menor a uno mayor. Pues la p es al revés, va de uno mayor a uno           |
|menor porque cuando haces vibrar la cuerda de la nota del número antes de la p, pones OTRO dedo en la nota del             |
|número depués de la p (si el número es 0 no pones ningun dedo pues es nota abierta) y luego sueltas el primer dedo         |
|pero sin hacer vibrar la cuerda de nuevo. El efecto de ligado es ahora a la inversa.                                       |
|---------------------------------------------------------------------------------------------------------------------------|


INTRO:

1|---------|-----------------------------------|-----------------------------|---------------|e
2|---------|-----------------------------------|-----------------------------|---------------|B
3|---------|-----------------------------------|-----------------------------|---------------|G
4|----0--1-|-2--0--1--2--0--1--2--0------------|-0h2-----------0-------------|---------------|D
5|-2-------|------------------------2--1--0----|------0--1--2-----2--1--0----|-------0--1--2-|A
6|---------|---------------------------------3-|---------------------------3-|-0--0----------|E

 

RIFF: (El riff se usa en todos los versos escuchen la cancion y sabran alo que me refiero)

1|-------------|---------------------------|---------------------------|---------------------------|e
2|-------------|---------------------------|---------------------------|---------------------------|B
3|º------------|---------------------------|---------------------------|---------------------------|G
4|º----0--1--2-|-------------------0--1--2-|-------------------0--1--2-|------------------0--1--2--|D
5|--2----------|-------4-----5--2----------|-------4-----5--2----------|------4-----5--2-----------|A
6|-------------|-0--0-----0----------------|-0--0-----0----------------|-0-0-----0-----------------|E

 1|----------------------------|---------------------------|----------------------------|e
 2|----------------------------|---------------------------|----------------------------|B
 3|--------------------0--1--2-|-------4-----5-----0--1--2-|-------4-----5--------------|G
 4|-----------------2----------|-0--0-----0-----2----------|-0--0-----0--------0--1--2--|D
 5|--------4-----5-------------|---------------------------|----------------2-----------|A
 6|--0--0-----0----------------|---------------------------|----------------------------|E

 1|----------------------------|------------------------|-------------------------|e
 2|----------------------------|------------------------|-------------------------|B
 3|----------------------------|------------------------|-------------------------|G
 4|--------------------0--1--2-|------------------------|-4--4--6--6--4--4--6--4--|D
 5|--------4-----5--2----------|-------4-----5-----4--2-|-2--2--2--2--2--2--2--2--|A
 6|--0--0-----0----------------|-0--0-----0-----0-------|-------------------------|E

 1|-------------------------|------------------------------------|------------------|e
 2|-------------------------|------------------------------------|------------------|B
 3|-------------------------|------------------------------------|-----------------º|G
 4|--2--2--4--4--2--2--4--2-|-2--2--2--2--2--2--2--0-------------|-0h2--2----------º|D
 5|--0--0--0--0--0--0--0--0-|-------------------------2--1--0----|---------0--1--2--|A
 6|-------------------------|----------------------------------3-|------------------|E


SOLO:

1|-0--0--0--0--0--0--0--0--0--0--0--0-|-0--0--0--0--0--0--0--0--0--0--0--0-|e
2|-9--9--9--9--9--9--9--9--9--9--9--9-|-8--8--8--8--8--8--8--8--8--8--8--8-|B
3|-9--9--9--9--9--9--9--9--9--9--9--9-|-9--9--9--9--9--9--9--9--9--9--9--9-|G
4|------------------------------------|------------------------------------|D
5|------------------------------------|------------------------------------|A
6|------------------------------------|------------------------------------|E

1|-0--0--0--0--0--0--0--0--0--0--0--0-|-0--0--0--0--0--0--0--0--0--0---------|e
2|-9--9--9--8--8--8--9--9--9--8--8--8-|-9--9--9--8--8--8--9--9--9--9---------|B
3|-9--9--9--9--9--9--9--9--9--9--9--9-|-9--9--9--9--9--9--9--9--9--9-------9-|G
4|------------------------------------|--------------------------------11----|D
5|------------------------------------|--------------------------------------|A
6|------------------------------------|--------------------------------------|E

1|--------------------------------------------|--------------------------------------------|e
2|-12--10--8-------------12--10--8------------|-12--10--8-------------12--10--8------------|B
3|------------11--9-----------------11--9-----|------------11--9-----------------11--9-----|G
4|-------------------11--------------------11-|-------------------11--------------------11-|D
5|--------------------------------------------|--------------------------------------------|A
6|--------------------------------------------|--------------------------------------------|E

1|-10--0--9---0--7--0--5--0-|-4--0--3--0--2--2--2--2-|--------------------------|e
2|-12--0--10--0--9--0--7--0-|-5--0--4--0--3--3--3--3-|-4--4--4--4--4--4--4----4-|B
3|--------------------------|------------------------|-4--4--4--4--4--4--4----4-|G
4|--------------------------|------------------------|--------------------------|D
5|--------------------------|------------------------|--------------------------|A
6|--------------------------|------------------------|--------------------------|E

1|----------------2--2P0-------|------------------------------------|-----------------|e
2|-2--2--2--2--2---------------|------------------------------------|-----------------|B
3|-2--2--2--2--2---------------|------------------------------------|-----------------|G
4|------------------------0--2-|-2--2--2--2--2--2--2--0-------------|-0P2--2----------|D
5|-----------------------------|-------------------------2--1--0----|---------0--1--2-|A
6|-----------------------------|----------------------------------3-|-----------------|E


----------------------------------------------------------------------------------------------------------------------------

>

E
Oye cantinero

sìrveme otra copa por favor
A
quiero estar borracho
                           E
yo quiero sentirme de lo peor
B
quiero tomar mucho
  A                           E
quiero tomar muccho para olvidar.


>


E
Oye cantinero

no te hagas del rogar
A
yo se lo que quiero
                     E
y me quiero emborrachar
     B
pues la mujer que quiero
   A                   E    B
con otros se fue a bailar.


E
Oigame señor,

ya a usted nada le puedo servir

por que?
A
este manicomio
                       E
no tiene servicio del bar
B
y no soy cantinero
          A                 E
soy el loquero de este hospital.


|-----------|
|COMENTARIO:|
|---------------------------------------------------------------------------------------------------------------------------|
|Sinceramente, creo que este TAB es lo más cercano a la canción ORIGINAL (no la canción en vivo),                           |
|pero creo que ya ni el mismo LORA la toca así pues le va poniendo y quitando arreglos mas que nada esta es mi              |
|interpretacion y no se escucha tan mal y vale la pena sacarla en guitarra,                                                 |
|creo que será de utilidad para que muchas personas, puedan practicar y aprender guitarra , o refinar sus errores           |
|(o los míos) a los que ya la aprendieron.                                                                                  |
|---------------------------------------------------------------------------------------------------------------------------|
|Por favor nadie dude en escribirme si tiene alguna duda, queja, comentario o sugerencia.                                   |
|---------------------------------------------------------------------------------------------------------------------------|
|Si les gusto mi interpretacion y mi trabajo, y quieren otro TAB como este de otra cancion, mandame una peticion a mi mail  |
|y con mucho gusto la cargo en el ATAME.                                                                                    |
|---------------------------------------------------------------------------------------------------------------------------|

DiSfUtEnLa:                         -/-/-/-/-/-/ viva el rock nacional /-/-/-/-/-/-
Suggest correction
Give kudos to tab author, rate the tab!
1 2 3 4 5
comments
print report bad tab
guest
Wanna post a correction for this tab? Suggest correction