Oops, an error
Loading. Please wait.

Parece Facil Tab

by El Tri
250 views 1 this week
no commentswrite comment
1 2 3 4 5
3 more votes to show rating
add to favorites
×
Save as Personal and add changes to this tab that will be seen only by you. Learn more ›
×
You can save this tab as Personal to edit and correct it or add notes. All changes will be seen only by you. Learn more »
save as personal
new!
launch autoscroll
font size
0
reset
how to read this tab
guitar tuner
Autoscroll
slow
fast
+/-
esc
set tempo
stop
              Am              F                    G
e------------|------------------------------------------------
B------------|-----1--------------1--------------------3------
G------------|---2---2----------2---2----------------4---4----
D-----2------|-2--------------3-------------0-2-3--5-------5--
A--3-----2--0|---------0-2-3--------------3-------------------
E------------|------------------------------------------------
    C
e-------------------0---
B---------1---------1---
G-------0---0-------0---
D-----2-------2-----2---
A---3-----------3---3---
E-------------------0---
           Am               F                G
e-----------------------------------------------------
B--------------1---------------1-----------------3----
G------------2---2-----------2---2-------------4---4--
D----------2---------------3----------0-2-3--5-------5
A--3--2--0----------0-2-3-----------3-----------------
E-----------------------------------------------------

   C
e-------------------0---
B---------1---------1---
G-------0---0-------0---
D-----2-------2-----2---
A---3-----------3---3---
E-------------------0---

ES TODO LO DEL INTRO ESPERO LES GUSTE
....Y QUE VIVA EL ROCK AND ROLL....
Suggest correction
Give kudos to tab author, rate the tab!
1 2 3 4 5
comments
print report bad tab
guest
Wanna post a correction for this tab? Suggest correction