Oops, an error
Loading. Please wait.

Santa Martha Tab

13 views 1 this week
no commentswrite comment
1 2 3 4 5
3 more votes to show rating
add to favorites
launch autoscroll
font size
0
reset
how to read this tab
guitar tuner
Autoscroll
slow
fast
+/-
esc
set tempo
stop
Help us to improve Ultimate-Guitar.com Take our survey!
×
Esta es un de mis canciones favoritas del Tri.
Es de la version del Cd de Santa Martha.
Esta muy facil solo es cosa 
de agarrarle el ritmo
 asi que ahi les va.

   C                          
e-----------------------------------
b-----------------------------------
g--5--5---5--5---5-5-5-5-5----------
d--5--5---7--7---5-5-7-5-7----------  X3
a-----------------------------------
e-----------------------------------

   F
e----------------------------------------
b----------------------------------------
g----------------------------------------
d--10--10---12--12---10--10---12--10--12-
a--8---8----8---8----8---8----8---8---8--
e----------------------------------------

Se repite otra vez C y luego sigue esto

   G                          C
e-----------------------------3----------
b-----------------------------5----------
g-----------------------------5----------
d--5--5---5--5---5-5-5-5-5----5----------
a--5--5---7--7---5-5-7-5-7----3----------
e-----------------------------3----------

Y luego se repite todo.

Y esa es toda la cancion espero que la disfruten y como diria el jefe Lora:

    !!!!!Que viva el rocanrol¡¡¡¡¡
Suggest correction
Give kudos to tab author, rate the tab!
1 2 3 4 5
comments
print report bad tab
guest
You may want to rate the tab now too:
select rating
Wanna post a correction for this tab? Suggest correction