Oops, an error
Loading. Please wait.

Solamente Dios Tab

15 views 1 this week
no commentswrite comment
1 2 3 4 5
3 more votes to show rating
add to favorites
launch autoscroll
font size
0
reset
how to read this tab
guitar tuner
Autoscroll
slow
fast
+/-
esc
set tempo
stop
Help us to improve Ultimate-Guitar.com Take our survey!
×
Esta es una buena canción ;)

Silbido:

e|-10-10-----15-12-10-12-10-15-12-10----------------------------------|  
B|-------12--------------------------12-10-12-12-10----10-12-12-10----|
G|--------------------------------------------------12------------12--|  
D|--------------------------------------------------------------------| 
A|--------------------------------------------------------------------|
E|--------------------------------------------------------------------|  

e|-15-12----15-12----15-12-----------|  
B|-------15-------15-------15-11/12--|
G|-----------------------------------|  
D|-----------------------------------|  
A|-----------------------------------|
E|-----------------------------------|  

Solo:

e|-12..-12/11--------------------------------------------------------------------|
B|------------13-12-10-8-10-12.-
Suggest correction
Give kudos to tab author, rate the tab!
1 2 3 4 5
comments
print report bad tab
guest
You may want to rate the tab now too:
select rating
Wanna post a correction for this tab? Suggest correction