Oops, an error
Loading. Please wait.

Una Rola Para Los Minusvalidos Bass Tab

17 views 1 this week
no commentswrite comment
1 2 3 4 5
3 more votes to show rating
add to favorites
launch autoscroll
font size
0
reset
guitar tuner
×
Best way to learn
"Una Rola Para Los Minusvalidos"
Autoscroll
slow
fast
+/-
esc
set tempo
stop
VERSO Y INTRO CADA VERSO TIENE LIGERAS VARIACIONES QUE SE SACAN YA CON VUELO

G---------------------------------------------
D---------------------------------------------
A----4---------------------------4/5----------
E------5---5--3---5---55-5---3----------------


CORO
   AQUI TERMINA EL VERSO
    |
    V
G------------------------------------------------
D------------------------------------------------
A--4/5--5--4--3-333--333-33-3--3/5-3------4/5----
E-------------------------------------3----------

G--------------------------------------------------------
D--------------------------------------------------------
A---5--4--3-333-333-33-3--3/5-----------0---2---4--4/5---
E------------------------------0--2--4-------------------


Y SE SIGUE REPITIENDO EL VERSO Y CORO

FINAL

G------------------------
D------------------------
A----4-------------------
E-------5---3---5--------    

CREO ES TODO SUERTE CON LA ROLA.
Suggest correction
Give kudos to tab author, rate the tab!
1 2 3 4 5
comments
print report bad tab
guest
You may want to rate the tab now too:
select rating
Wanna post a correction for this tab? Suggest correction