Oops, an error
Loading. Please wait.

Viejas De Vecindad Chords

version 2
version 2

Whole song

by El Tri
21 views 1 this week
no commentswrite comment
1 2 3 4 5
3 more votes to show rating
add to favorites
launch autoscroll
font size
0
reset
transpose
0
reset
simplify chords
display chords
guitar tuner
×
Best way to learn
"Viejas De Vecindad"
Autoscroll
slow
fast
+/-
esc
set tempo
stop
INTRO
   C      Em       Am                  C      Em      Am
e------------------------------0----------------------------------0---
B--------------------------1-----1----------------------------1-----1-
G------0-------0-------2-----2------------0-------0-------2-----2-----
D----2---2---2---2---2---2--------------2---2---2---2---2---2---------
A--3-------2-------0--------------0-2-3-------2-------0---------------
E----------------------------------------------------------------------
   G 
e--3~~~~~---
B--3~~~~~---
G--0~~~~~---
D-----------
A-----------
E--3~~~~~---

EL VERSO ES IGUAL OBSERVEN CON LOS ACORDES LOS TIEMPOS, 
AL FINAL DEL A-B HECHENLE DE SU COSECHA QUE A MI YA ME DIO GUEVA JAJA

A)
C    Em             Am
 Hay gentes que se fijan mucho
C     Em        Am
 en la paja del ojo ajeno
C  Em            Am
 y nunca se dan cuenta
                  G
 de la viga que traen en el trasero.
B)
C      Em          Am
 Hay quienes se dedican
C   Em             Am
 a criticar a los demas
C   Em         Am
 y llegan a hacer del chisme
     G
 una forma de vivir
        F
 una profesion.

C1)
C-G-F
     Chismes de lavadero
C-G-F
     viejas de vecindad
C-G-F                        G
     siempre sacandose a balcon con la suciedad
A)

 Hay unos que son celosos
 hay otros que son envidiosos
 o algunos otros simplemente
 les caiste mal
B)
 Me recuerdan a las comadres
 jugando canasta en las tardes
 y haciendo del chisme caliente
 una forma de vivir
 una institucion

C2)
Chismes de lavadero
viejas de vecindad
siempre pensando que jaladas inventar

SE REPITEN C1 Y C2 DURANTE TODA LA CANCIÓN, EN ALGUNAS PARTES ES C CON EL CHIFLIDITO.
Esta no tiene nada eu ver contigo pero te la dedico por que la saque pensando en ti
claro que todo lo ago pensando en ti bye
Suggest correction
Give kudos to tab author, rate the tab!
1 2 3 4 5
comments
print report bad tab
guest
You may want to rate the tab now too:
select rating
Wanna post a correction for this tab? Suggest correction