Oops, an error
Loading. Please wait.

Virgen Morena Tab

version 1
version 1

Whole song

by El Tri
52 views 1 this week
no commentswrite comment
1 2 3 4 5
3 more votes to show rating
add to favorites
launch autoscroll
font size
0
reset
how to read this tab
guitar tuner
×
Best way to learn
"Virgen Morena"
Autoscroll
slow
fast
+/-
esc
set tempo
stop
este es el intro y se toca tambien en la 1era parte del verso
Riff 1
e-0/1---0-------3--3---0--0--0---3--3-0--3--1--1**---
B-----------3---0--0---1--1--1---0--0-1--0--1--1**---
G---------------0------0--0------0----0--0--2--2**---
D----------------------------------------------------
A----------------------3--------------3--------------
E---------------3----------------3-------3--1--------

donde empieza

A)
Riff
 Cuando la luna se empieza a ocultar
Riff
 y la luz nos comienza a iluminar
Am             G
 empiezan a sonar las campanas
Am         G
 de la basilica
Am          G
 para anunciarnos que pronto
      C                  F   
 un nuevo dia va a comenzar.

A)
y para todas la criaturas del mundo
la vida tiene que seguir
y desde alla arriba en el cielo
la madre del creador
nos cuida nos ilumina y
nos manda su bendicion.

b)esto se oye en el sinfonico (no recuedo si en el sencillo tambien) lo tienen que
 oir para darle los tiempos bien es facil.
                                                            |
                                                            V  aqui caes en el C que sigue
           Am*                E--0**--5**--8**--12*--------------
 Virgen Morena                B--1**--5**--10*--13*--------------
C                             G--2**--5**--9**--14*--------------
 tu pueblo te canta           D----------------------------------
           Am*                A-----------------------0--2--3----
 esta cancioooon              E----------------------------------
C
 con tu bendición

A)
y cuando la noche empieza a caer
y las luces se empiezan a encender
se ilumina de estrellas toda la constelacion
pues la cubre con su manto
la virgen de mexico

B)
Virgen Morena
gracias por darnos un dia maaaaaas
con tu bendicion.....

aqui entra el chiflidito. que se acompaña con el riff, 2 veces igual que en a)

e------------------------------------------------
B---5/6-5----------------------------------------
G----------7--4--5--4--5--4--2---0---------2-----        X2
D------------------------------------2--3--------
A------------------------------------------------
E------------------------------------------------

e------------------------------------------------------------------------------------
B---6/8-6--8--8--6--6/8--------5-6-5-----------5v-5v-----5-----6/8-6--8--8--6--6/8---
G------------------------5--7---------7--5--7---------7-----5------------------------
D------------------------------------------------------------------------------------

e---------0-0/1--0-----1------
B---1--3------------3--1------
G----------------------2------
D-----------------------------

B)
Virgen Morena.... y se repite con pequeñas variaciones de letra y notas.

Bueno es todo espero que esta rola si me la publiquen.
dudas a mi mail. prometo agrandarle cualquiera que sea, gambitmx2@
Suggest correction
Give kudos to tab author, rate the tab!
1 2 3 4 5
comments
print report bad tab
guest
You may want to rate the tab now too:
select rating
Wanna post a correction for this tab? Suggest correction