Oops, an error
Loading. Please wait.

Virgen Morena Tab

version 2
version 2

Whole song

by El Tri
19 views 1 this week
no commentswrite comment
1 2 3 4 5
3 more votes to show rating
add to favorites
launch autoscroll
font size
0
reset
how to read this tab
guitar tuner
Autoscroll
slow
fast
+/-
esc
set tempo
stop
Esta canción es para toda la banda.
De parte de Felix Ocampo M.
h-hammer
p-pull-off
s-slide
b-bend up
v-vibrato


intro           es el mismo tiempo del intro
6--------------/-----------
5--------------/--------3--
4--11-----10---/--3--2--5--
3--10--9-------/--5--4--5--
2--------------/--5--4----- 
1--------------/-----------

riff 1
6----------------------------
5----------------------------
4----------------14--12?14v--
3?13h14--14--12--------------
2----------------------------
1----------------------------

riff 2
6---------------/----------------
5---------------/----------------
4---------------/----------------
3--14-----------/--14------14v---
2------13-------/------13--13v---
1----------14b--/----------------

riff 3
6--------------------------------
5--------------------------------
4--------------------14--12--14--
3?13h14------14--12--------------
2--------13----------------------
1--------------------------------

riff 4
6-------------------------------------
5-------------------------------------
4------------------10-----10----------
3?12h14--14--9--7------7------7s9?9v--
2-------------------------------------
1-------------------------------------

riff 5    (_)=rapido
6---------------------------------------------
5---------------------------------------------
4--14-----------------------------------------
3------14--14---------------------------------
2--------------13-----------------------------
1------------------16p14-----14--16--15--14b--
                  hacer varios
                   pull-off


este riff lo toca cuando alex lora chifla
es la melodía del chiflido. (dos veces)
Riff6
6--------------------------------------
5--------------------------------------
4--------------------------------------
3--------------------------------------
2----------13--12--13--12--13--15?12v--
1--13--12------------------------------.


El requinto después lo mando, lo que pasa
que el requinto lleva hasta el traste 23
y mi guitarra no lo tiene.

Los riffs que van después del requinto algunos son
Parecidos y otros los puedes improvisar y se oyen chido.


Final
Esto va cuando acaba el requinto
6--------------------------/-----------------------------
5--------------------------/--3--------------------------
4--0--1--3--5--3--1--0--2--/--------2-----------------3--
3--------------------------/-----0------------------4----
2--0--1--3--5--3--1--0--1--/--3-------------------3------
1--------------------------/-----------0--1--3--5?-------

6------------------------------------------------------
5------------------------------------------------------
4-----------------3---------------------0-----------2--
3---------------2--------------------0--------------0--
2------------1-------------1--2--0---------3--1--0--1--
1--5--3--0--1--------1--0------------------------------
Suggest correction
Give kudos to tab author, rate the tab!
1 2 3 4 5
comments
print report bad tab
guest
You may want to rate the tab now too:
select rating
Wanna post a correction for this tab? Suggest correction