Oops, an error
Loading. Please wait.

Volvimos A Perder Tab

6 views 1 this week
no commentswrite comment
1 2 3 4 5
3 more votes to show rating
add to favorites
launch autoscroll
font size
0
reset
how to read this tab
guitar tuner
×
Best way to learn
"Volvimos A Perder"
Autoscroll
slow
fast
+/-
esc
set tempo
stop
AQUI LES VA ESTA ROLA ESPERO QUE LES SIRVA DE ALGO

INTRODUCCIÓN: Fig. 3

                   Fig. 1
Segura llegó primero
                         Fig. 2
Pero los jueces la echaron
                   Fig. 1
Nos robaron medalla
                        Fig. 3
Sin ninguna explicación

                    Fig. 1
Nos volvimos a quedar
                         Fig. 2
Como las novias de pueblo,
                    Fig. 1
Vestidas y alborotadas
                        Fig. 4/g5
Esperando el bien de dios

                   As5 C5-g5
Y volvimos a perder
                          As5 C5-g5
Como siempre hemos perdido
                        As5 C5-g5
Por una cosa o por otra
                   g5-As5 C5
Volvimos a perder;
                    Ds5 F5-C5
Hoy jugamos como nunca
                     Ds5 F5-g5
Y perdimos como siempre
                        As5 C5 G5 pausa
Otra vez la burra al trigo
                    Fig. 3
Ya volvimos a perder

                        Fig. 1
Ya estan sacando a balcón
                      Fig. 2
A corruptos y asesinos
                       Fig. 1
Y a una bola de rateros
                      Fig. 3
Que abusaron del poder

                         Fig. 1
Y aunque todos ya sabemos
                         Fig. 2
Quienes fueron los culpables
                          Fig. 1
Ellos siguen tan campantes
                          Fig. 3
Y el pueblo volvió a perder

                   As5 C5-g5
Y volvimos a perder
                                      Fig. 4
Como siempre, etc. -se repite el coro-.


Líricas: g5 As C5 (3 veces)/Fig.5/ Fig.5
         C5/ Fig.5-C5/ Fig.6
         g5 As5 C5 (3 veces)/Fig. 7

                       Fig. 1
Siguen cobrando su sueldo
                       Fig. 2
Todos los ex-presidentes
                           Fig. 1
Mientras hay miles de gentes
                       Fig. 3
Que no tienen pa´ comer

                          Fig. 1
Seguimos haciendo chistes
                          Fig. 2
De todas nuestras desgracias
                          Fig. 1
Y a la hora de los penales

LA volvimos A cagar

                  As5 C5-g5
Y volvimos a perder
                                      Fig. 4/ Fig. 5
Como siempre, etc. -se repite el coro-.

¡Aaaaayyyyy!


                         Se repite
 G5                        4 veces               Fig. 3
6.--------------------|----------/--|----------------
5.--5-------5---5-----|---------/---|--5-------------
4.---3--5-3---3---3-5-|--------/----|----3---5-pausa-
3.----3---------------|-------/-----|------3---------
2.--------------------|------/------|----------------
1.--------------------|-----/-------|----------------

Fig. 2
6.--3--3--3-----------
5.--5--5--5-pausa-----
4.--------------------
3.--------------------
2.--------------------
1.--------------------

Fig. 1
6.----3-------3-pausa-
5.--------1-----------
4.--------------------
3.--------------------
2.--------------------
1.--------------------


Fig. 4
6.---------------------
5.-5---------5---5-----
4.---3---5-3---3---3-5-
3.-----3---------------
2.---------------------
1.---------------------
                   se repite
                   4 veces

Fig. 5
6.--------------------
5.--------------3-----
4.------5-4-3-1-------
3.--5-3---------------
2.--------------------
1.--------------------


Fig. 6
6.--------------|--------------
5.--------------|--------------
4.------5-4-3-1-|----se repite-
3.--5-3---------|----3 veces---
2.--------------|--------------
1.--------------|--------------


Fig. 7
6.-----5-4-3---3 pausa-
5.-5-3-------1---------
4.---------------------
3.---------------------
2.---------------------
1.---------------------

  G5
  ---|---|---|---|---|---
  ---|---|---|---|---|---
  ---|---|---|---|-
Suggest correction
Give kudos to tab author, rate the tab!
1 2 3 4 5
comments
print report bad tab
guest
You may want to rate the tab now too:
select rating
Wanna post a correction for this tab? Suggest correction