Oops, an error
Loading. Please wait.

Ya Estamos Hartos Tab

by El Tri
16 views 1 this week
no commentswrite comment
1 2 3 4 5
3 more votes to show rating
add to favorites
×
Save as Personal and add changes to this tab that will be seen only by you. Learn more ›
×
You can save this tab as Personal to edit and correct it or add notes. All changes will be seen only by you. Learn more »
save as personal
new!
launch autoscroll
font size
0
reset
how to read this tab
guitar tuner
Autoscroll
slow
fast
+/-
esc
set tempo
stop
INTRO

 C
|------------------------------|
|------------------------------|
|------------------------------|
|-5-5--7--5-5-5--7--5-5-5--7---|
|-3-3--3--3-3-3--3--3-3-3--3---|
|------------------------------|


C    
Ya estamos hartos 

de esta maldita crisis

y de tantas mentiras 

que a diario nos dicen.


Ya estamos hartos

de tantas fallas

y de estar en las manos

de una bola de gandallas.

                    A# F
Pero qué le hacemos?
                     C
Qué le vamos a hacer?
         A#            
Hay que gritar esta rola 
      F                          C
para que retumbe en todo el país.


Ya estamos hartos de las transa-nacionales

ya estamos hartos de tantos vivales

de los políticos homosexuales

de sus galanes y sus chalanes.

                    A# F
Pero qué le hacemos?
                      C 
Qué le vamos a hacer?
          A#
Hay que gritar esta rola
      F                              C 
para que se escuche en todo el país.


Que se oiga niños, Cómo dice?

Ya estamos hartos                    Ya estamos hartos               Ya estamos hartos


Ya estamos hartos...                 Ya estamos hartos...            Ya estamos hartos...

 C                        F                        C
|------------------------------|------------------------------|------------------------------|
|------------------------------|------------------------------|------------------------------|
|------------------------------|------------------------------|------------------------------|
|-5-5--7--5-5-5--7--5-5-5--7---|------------------------------|-5-5--7--5-5-5--7--5-5-5--7---|
|-3-3--3--3-3-3--3--3-3-3--3---|-3-3--5--3-3-3--5--3-3-3--5---|-3-3--3--3-3-3--3--3-3-3--3---|
|------------------------------|-1-1--1--1-1-1--1--1-1-1--1---|------------------------------|

A#            F                  C      
|------------|-----------------|------------------------------|
|------------|-----------------|------------------------------|
|------------|-----------------|------------------------------|
|-3-3-3-3----|-----------------|-5-5--7--5-5-5--7--5-5-5--7---|
|-1-1-1-1----|-3-3-3-3---------|-3-3--3--3-3-3--3--3-3-3--3---|
|------------|-1-1-1-1---------|------------------------------|

      A#                     F                         C
Si seguimos gritando algún día Dios nos tiene que oír.

Ya estamos hartos.


Ya estamos hartos de esta sociedad

que nos humilla y no nos deja progresar

ya estamos hartos de tanta represión 
                                          
de tantas promesas y de tanta corrupción.

                    A# F
Pero qué le hacemos?
                    C
qué le vamos hacer?
           A#               
Hay que gritar esta rola
     F                            C
para que retumbe en todo el país.


Que retumbe niños, cómo dice?
C   
Ya estamos hartos... (x4)
F
Ya estamos hartos... (x2)
     A#                     F                          C
Si seguimos gritando algún día Dios nos tiene que oír.
C
Ya estamos hartos... (x4)
F
Ya estamos hartos... (x2)

C
Ya estamos hartos de que nos vean la cara

de la demagogia y la manipulación

Ya estamos hartos de tanta inseguridad

y de que nos digan que todo se va a arreglar

                     A# F
Pero qué le hacemos?
                      C
qué le vamos a hacer?
          A#                   F                              C    
hay que gritar esta rola para que se escuche en todo el país.


Que se oiga chamacos. Cómo dice?

Ya estamos hartos... (x4)

ya estamos hartos ... (x2)

      A#
Si seguimos gritando... 


Por el ser como es.... Gracias Domadora!!
Suggest correction
Give kudos to tab author, rate the tab!
1 2 3 4 5
comments
print report bad tab
guest
Wanna post a correction for this tab? Suggest correction