Oops, an error
Loading. Please wait.

Ya No Le Metas Chords

by El Tri
34 views 1 this week
no commentswrite comment
1 2 3 4 5
3 more votes to show rating
add to favorites
launch autoscroll
font size
0
reset
transpose
0
reset
simplify chords
display chords
guitar tuner
×
Best way to learn
"Ya No Le Metas"
Autoscroll
slow
fast
+/-
esc
set tempo
stop
Pa´toda la perrada ke le pone a kualtier kosa
ke apendeje, ponganle mucha atencion a esto,
he Luz (shady darck)


Intro        G5
---------------------/E
--------------------- A
--------------------- D
-7-7-6-6-5-5-4------- G
--------------------- B
--7---6---5--3-------\e

Ya no le metas a esa madre
                           D5
ya te esta haciendo mucho daño
                         C5    D5
siempre las pagas en el baño
                      G5
y no te acuerdas despues


Ya no le metas a esa madre
                        D5
por que te pones muy idiota
                C5    D5
y de volada se nota
                      G5
que ya te diste las tres


          A5   B5        C5
Mejor ya ponte bien las pilas
                      G5
pa´que no la andes cagando
                         A5
por que luego las andas dando
                    D
y no sabes ni con quien


                      G5
Ya no le metas a esa madre
                     D5
te pones hasta las manitas
                  C5   D5
y cuando no te vomitas
                         G5 A5 B5
te andas volteando al reves

 C5                              G5       A5          D5
---------------------------------------------------------------------/E
--------------------------------------------------------------------- A
--------------------------------------------------------------------- D
-7-7-7-7-7-7-7-7-7-7-7-7-7-7-7-7-----------9-9-9-9-9--7-7-7-7-7-7-7-- G
---------------------------------8---8---8--------------------------- B
--7---7---7---7---7---7---7---7-7-7-5-7-5-7-9-9-9-9-9-7-7-7-7-7-7-7--\e


(silvido con este acompañamiento)

G5        D5        C5          D5         G5

          A5    B5       C5
Mejor ya ponte bien las pilas
                      G5
pa´que no la andes regando
                            A5
y pue´que hasta de ves en cuando
                    D
tu chicle puedas pegar

                      G5
Ya no le metas a esa madre
                        D5
por que te pones muy baboso
                     C5     D5
te la pasas haciendo osos
                      G5
y no te acuerdas despues

                   C5     D5
Dices puras estupideces
                    G5
en español y en ingles
                      C5
ya no le metas a esa madre
          D5
si no despues no te la vas a acabar


Final
--------------------------------/E
-------------------------------- A
---------9-7-9------------------ D
-9-7-9-7-9-7-9-9-7-------------- G
-9-7-9-7-------9-7-------------- B
--------------------------------\e
empezando va un bend del 1er par de 9´s al par de 7´s
Suggest correction
Give kudos to tab author, rate the tab!
1 2 3 4 5
comments
print report bad tab
guest
You may want to rate the tab now too:
select rating
Wanna post a correction for this tab? Suggest correction