Oops, an error
Loading. Please wait.

El Golpe Chords

46 views 1 this week
no commentswrite comment
1 2 3 4 5
3 more votes to show rating
add to favorites
launch autoscroll
font size
0
reset
transpose
0
reset
display chords
guitar tuner
Autoscroll
slow
fast
+/-
esc
set tempo
stop
Help us to improve Ultimate-Guitar.com Take our survey!
×
INTRO: G-D#-C-G  x2

G-D#-A#-C  x4

G-D#-A#-C
Estamos todos otra vez aqui en el mismo bar
echando unos kubatas y no paran de hablar
y poco a poco dejo de oir, sus voces se van
y poco a poco tambien la vista se me va

D#-F-A#-C
los colores disminuyen al fondo esa silueta
D#-F-A#-A#
que la veo gris y se mueve sin parar
D#-F-A#-C
veo un tio que se agacha, con las dos manos sujeta
D#-F-A#-A#
en postura de gran fuerza una guitarra

G-D#-A#-C  x4

G-D#-A#-C
el odio se desata sensacion de joven rompedor
cansado de callarse, revelarste con todo
el cable de la clara y destellante guitarra
ondulado hacia abajo esperando el final

D#-F-A#-C
Y de pronto asombrado la guitarra es un martillo
D#-F-A#-A#
listo y preparado para golpear
D#-F-A#-C
en las piernas los grilletes mi vida sujetan
D#-F-A#-A#
ahora tiemblan las cadenas llega su final

SOLO (*)

G-D#-A#-C
el golpe, el golpe, el golpe, el golpe se oira
el golpe, el golpe, el golpe, mucho antes de sonar
el golpe, el golpe, el golpe, intuyo el golpe ya
el golpe, el golpe, el golpe, es vuestro final
el golpe se vive, el golpe se da,
el golpe te lleva camino de la libertad

FIN

                           (*)SOLO

         G-D#-A#-C                          G-D#-A#-C
||-------------------------------      -------6-----------------------
||-8-8-8-8-8-6-------------------      -8-8-8---8-6-------------------
||-------------8-7-7-5---5-------  x2  -------------8-7-7-5---5-------  X2
||---------------------8---8-7---      ---------------------8---8-7---
||-----------------------------8-      -----------------------------8-
||-------------------------------      -------------------------------


                 D#-F-A#-C-D#-F-A#-LA#
  ---------------------------------------------------------     ||
  ----------------------------------------8----------------     ||
  -8-8-8-8-7----10-10-10-8-7-8-7-8-8-8-10---10-------------  x2 ||
  -----------10--------------------------------10-8-10-8---     ||
  ---------------------------------------------------------     ||
  ---------------------------------------------------------     ||
Suggest correction
Give kudos to tab author, rate the tab!
1 2 3 4 5
comments
print report bad tab
guest
You may want to rate the tab now too:
select rating
Wanna post a correction for this tab? Suggest correction