Oops, an error
Loading. Please wait.

Eroriz Bass Tab

8 views 1 this week
no commentswrite comment
1 2 3 4 5
3 more votes to show rating
add to favorites
launch autoscroll
font size
0
reset
guitar tuner
×
Best way to learn
"Eroriz"
Autoscroll
slow
fast
+/-
esc
set tempo
stop
1. intro

G|--------------------
D|--------------------
A|5----0----5----0----
E|--------------------

G|--------------------------------------------------------------
D|--------------------------------------------------------------
A|--------------0-0-0-0-0-0-0-0-----------------0--0--0--0--0--0
E|3-3-3-3-3-3-3-----------------3-3-3-3-3-3-3-3-----------------

2. estrofa

G|---------------------------------------------------------------
D|---------------------------------------------------------------
A|5-5-5-5-5-5-5-5-0-0-0-0-0-0-0-0-----------------0-0-0-0-0-0-0-0 X2
E|--------------------------------3-3-3-3-3-3-3-3----------------


G|---------------------------------------------------------------
D|---------------------------------------------------------------
A|5-5-5-5-5-5-5-5-2-2-2-2-2-2-2-2-0-0-0-0-0-0-0-0---------------- x2
E|------------------------------------------------3-3-3-3-3-3-3-3

4. solo

G|---------------------------------------------------------------
D|---------------------------------------------------------------
A|5-5-5-5-5-5-5-5-0-0-0-0-0-0-0-0-----------------0-0-0-0-0-0-0-0 x2
E|--------------------------------3-3-3-3-3-3-3-3----------------

2. estrofa

3. etribillo

5. cortes

G|----------------------------
D|----------------------------
A|5--5-5--0--0-0--5--5-5--2--0 x2
E|----------------------------


G|---------------------------------------------------------------
D|---------------------------------------------------------------
A|----------------2-2-2-2-2-2-2-2-0-0-0-0-0-0-0-0-5-5-5-5-5-5-5-5 x4
E|3-3-3-3-3-3-3-3------------------------------------------------
Suggest correction
Give kudos to tab author, rate the tab!
1 2 3 4 5
comments
print report bad tab
guest
You may want to rate the tab now too:
select rating
Wanna post a correction for this tab? Suggest correction