Oops, an error
Loading. Please wait.

Musikarekin Askatasuna Bass

40 views 1 this week
no commentswrite comment
1 2 3 4 5
3 more votes to show rating
add to favorites
launch autoscroll
font size
0
reset
guitar tuner
×
Best way to learn
"Musikarekin Askatasuna"
Autoscroll
slow
fast
+/-
esc
set tempo
stop
1. intro

G|-------------------------------------------------------
D|--------3-----3----------------------3-----3-----------
A|5---3-5-----5---3-----3-5--5-5---3-5-----5---3-----3-5-
E|--------------------3----------------------------3-----

2. estrofa: harresi artean esnatu eta...

G|-----------------------5-------------------------------
D|----------7--3-3-3-3-3-----------5-3-2-----------------   x2
A|5-5-5-5-5----------------3-3-3-3-----------------------
E|---------------------------------------3-3-3-3-3-3-3-3-

3. estrofa: amets gauzatan murgiltzen gara...

G|-------------------------------------------------------------------
D|-------------------------------------------------------------------
A|8-8-8-8--7-7-7-7--5-5-5-5-5-5-5-5--8-8-8-8--7-7-7-7----------------
E|----------------------------------------------------3-3-3-3-3-3-3-3

G|---------------------------------------------------
D|---------------------------------------------------
A|8-8-8-8--7-7-7-7--5-5-5-5-5-5-5-5--8-8-8-8--7-7-7-7
E|---------------------------------------------------

G|------------------------
D|------------------------
A|10-10-10-10-10-10-10-10-
E|------------------------

4. estribillo

G|--------------------------------------------------------
D|--------------------------------------------------------   x2
A|5-5-5-5--3---------------------5-5-5-5--3-3-3-3---------
E|--------------3-3-3-3-3-3-3-3--------------------3-3-3-3

orden:1-2-3-2-4-2-2-3-2-4

el ultimo 4 asta akabar la kanzion
Suggest correction
Give kudos to tab author, rate the tab!
1 2 3 4 5
comments
print report bad tab
guest
You may want to rate the tab now too:
select rating
Wanna post a correction for this tab? Suggest correction