Oops, an error
Loading. Please wait.

Spitofrenia Tab

5 views 1 this week
no commentswrite comment
1 2 3 4 5
3 more votes to show rating
add to favorites
launch autoscroll
font size
0
reset
how to read this tab
guitar tuner
Autoscroll
slow
fast
+/-
esc
set tempo
stop
Help us to improve Ultimate-Guitar.com Take our survey!
×
Aupa peña!

Ba beno aki os dejo la tab de esta cancion
son tres acordes de nada
algo simple pa la peña que esta empezando ;)
Weno la cosa empieza asi y para aclararos mejor poneros la cancion jeje


[[INTRO]](Sin distorsion)

e|------------------------2---3-2--------------------|
B|------2---3-2----------3-3-3---3-2-----------------|
G|-----2-2-2---2--------2---2------------------------|
D|----2---2-----2------0-----------------------------|
A|---0-----------------------------------------------|
E|---------------------------------------------------|

e|---------------------------------------------------|
B|------2---3-2--------------------------------------|
G|-----2-2-2---2------------1------1-----------------|
D|----2---2-----2----------2-2-2--2-2----------------|
A|---0--------------------2---2--2-------------------|
E|-----------------------0------0--------------------|


Ya estamos otra vez taladraos al sofa
sin podernos mover, basta con respirar
un vacio estomacal, tengo un clavo mortal
un nudo en mi interior me obliga a estar atao
Sin saber bien que hacer, sin saber que pensar
sin saber que contar, nada en mi cerebro
sin saber bien que hacer, sin saber que pensar,
sin saber que contar, preso de mi cuerpo.


((Y bueno el resto de la cancion va con distorsion y kintas))


LA
Paso los lunes anestesiao,
RE
dejo los martes medio mareao
LA
y el miercoles me viene a despertar
MI
y me viene a despertar
LA
me viene el jueves le empiezo a gritar,
RE
vete quel viernes va a llegar
LA
y el sabado engordo
MI
mi nariz se la cargo.
LA                        RE
Sin saber bien que hacer, sin saber que pensar
LA                   MI
sin ganas de comer, me empache al esnifar
LA                         RE
sin saber bien que hacer, sin saber que contar,
LA                     MI
sin ganas de comer, no me puedo sobar
LA                   RE                 LA
Ese polvo blanco que llaman speed, que me hara feliz
MI                      LA                          RE
y me va a matar / voy palante que no es poco, aunque no comprendotodo,
LA                               MI
aunque se me haya acabao me puedo comer los mocos


Beno espero que os sirva
Es mi primera trancripcion nose que tal abra kedao..

ViciuS-AndeR-Resaka
Suggest correction
Give kudos to tab author, rate the tab!
1 2 3 4 5
comments
print report bad tab
guest
You may want to rate the tab now too:
select rating
Wanna post a correction for this tab? Suggest correction