Oops, an error
Loading. Please wait.

Ya Estoy Harto Tab

8 views 1 this week
no commentswrite comment
1 2 3 4 5
3 more votes to show rating
add to favorites
launch autoscroll
font size
0
reset
how to read this tab
guitar tuner
×
Best way to learn
"Ya Estoy Harto"
Autoscroll
slow
fast
+/-
esc
set tempo
stop
Bueno os dejo con esta pedazo de canción!

Esto es la intro: (SE REPITE 2 VECES)

e||-----------------------------------------------------------
B||-----------------------------------------------------------
G||-----7-7-----7-7-----7-7-11-9-----7-7-----7-7-----7-7-11-9-
D||-7-7-5-5-7-7-5-5-7-7-5-5-9--7-7-7-5-5-7-7-5-5-7-7-5-5-9--7-
A||-5-5-----5-5-----5-5----------5-5-----5-5-----5-5----------
E||-----------------------------------------------------------

---------------------------------||
---------------------------------||
-7-7-7-7-7-7-7-7-9-9-9-9-9-9-9-9-||
-5-5-5-5-5-5-5-5-7-7-7-7-7-7-7-7-||
---------------------------------||
---------------------------------||

Punteo:

e||-------------------------------------------------------------------------
B||-8-7---------8-7---8-7---------------8-7---------8-7---8-7---------------
G||-----7---7-------7-----7---7-------------7---7-------7-----7---7---------
D||-------9---9-------------9---9-7-9-7-------9---9-------------9---9-7-9-7-
A||-------------------------------------------------------------------------
E||-------------------------------------------------------------------------

----------------------------------------------------
-8-8-8-7-------8-8-8-7-------8-8-8-7-------10---7---
---------7-9-9---------7-9-7---------7-9-9----9---7-
----------------------------------------------------
----------------------------------------------------
----------------------------------------------------

----------------------------------------------||
-8-8-8-7-------8-8-8-7-------8-8-8-7-------10-||
---------7-9-9---------7-9-7---------7-9-9----||
----------------------------------------------||
----------------------------------------------||
----------------------------------------------||


Estos son los acordes que siguen después del punteo:

D5(5ºcuerda) B5(6ºcuerda) A5(6ºcuerda) G5(6ºcuerda)


Luego cambia:

D5                       B5-A5
No te olvides de luchar, no vayas a abandonar
G5
te tendran que soportar
D5                    B5-A5
Y de sobras ya sabras que esto aun puede cambiar
G5
ahora dime ¿tu que haras?

Y ahora el punteo, y luego D5 B5 A5 G5 y ya esta.

Cualquier fallo comentarme

Agur!
Suggest correction
Give kudos to tab author, rate the tab!
1 2 3 4 5
comments
print report bad tab
guest
You may want to rate the tab now too:
select rating
Wanna post a correction for this tab? Suggest correction