Oops, an error
Loading. Please wait.

Como Un Burro Amarrado A La Puerta Del Baile Bass Tab

version 1
version 1

Whole song

Interactive

1,692 views 3 this week
no commentswrite comment
1 2 3 4 5
please rate
add to favorites
launch autoscroll
font size
0
reset
guitar tuner
Autoscroll
slow
fast
+/-
esc
set tempo
stop
Help us to improve Ultimate-Guitar.com Take our survey!
×
Contributor
Difficulty
intermediate
                 x4                                           x3
G/----------------|--------------------|-----------------------|
D/-------7------5-|--------------------|---------------7-------|
A/----------------|--------------------|-----------------------|
E/-5-5------3-3---|-55-55-55-555-53-33-|-005-55-55-555---53-33-|
  (Estribillo)
G/----11-11-11-11--------11-11-11-11--------11-11-11-11---------11-11-11-11-|
D/-10------------12-12--------------10-10---------------12-12---------------|
A/--------------------------------------------------------------------------|
E/--------------------------------------------------------------------------|

G/----------------------------------------------------------------|---------|
D/-10-10---12-10--------------------------------------------------|---------|
A/---------------12-10-12-----12-12-12-12-------12-12-12-12-------|-10-9----|
E/------------------------10--------------8-8---------------10-10-|------10-|
                 x4          (Estrofa)           (Estribillo)
G/----------------|-----------------------------|------------|---|
D/--------7-----5-|-----7-------7-----5-------5-|------------|---|
A/----------------|---7-------7-----5-------5---|------------|---|
E/--5-5-----3-3---|-5-----5-5-----3-----3-3-----|------------|-5-|
                x2   (Estrofa)-->
G/---------------|---------------|
D/-------7-----5-|---------------|
A/---------------|---------------|
E/-5-5-----3-3---|---------------|

Tabbed by Victor Atienza
Any problem contact with me / Algun problema contacte
For more understanding of the tab here's my video/Para mas entendimiento de la tablatura 
les dejo mi video
--> http://www.youtube.com/watch?v=6rWS9KVRjps&list=ULgsESzo4_aVw&playnext=1
comments
We did not receive enough feedback on this tab! Please rate:
print report bad tab
1 2 3 4 5
I want to post or [tab]
guest
You may want to rate the tab now too:
select rating
Please do not post tabs as comments. Select "correction" instead!