Oops, an error
Loading. Please wait.

Tus Bragas Bass Tab

version 1
version 1

Whole song

Interactive

1,032 views 1 this week
no commentswrite comment
1 2 3 4 5
2 more votes to show rating
add to favorites
launch autoscroll
font size
0
reset
guitar tuner
Autoscroll
slow
fast
+/-
esc
set tempo
stop
Help us to improve Ultimate-Guitar.com Take our survey!
×
-----------------------------------------------------------------------------
                        Tus Bragas - El Ultimo Ke Zierre
-----------------------------------------------------------------------------
Tabbed by: Urigeler
E-mail: oripere@hotmail.com

Tuning: Standar

Intro

G|--------------------------------------------------------------------------|
D|--------------------------------------------------------------------------|
A|----------4--------------------------------7----7-5-4---------------------|
E|-5------------9-7-5-4--10--10-10--10--10-7------------7-5~----------------|


Slow

G|--------------------------------------------------------------------------|
D|--------------------------------------------------------------------------|
A|--------------------------------------------------------------------------|
E|---9-----10----10-12----12-5----5-9----9-10----10-12~---------------------|

Chours 1

G|--------------------------------------------------------------------------|
D|--------------------------------------------------------------------------|
A|----------------------------------5-55555555555555-7-77777777777777-------|
E|5-55555555555555-9-99999999999999-----------------------------------------|

G|--------------------------------------------------------------------------|
D|--------------------------------------------------------------------------|
A|----------------------------------5-55555555555555-7~---------------------|
E|5-55555555555555-9-99999999999999-----------------------------------------|


Inerlude

G|--------------------------------------------------------------------------|
D|--------------------------------------------------------------------------|
A|--------------------------------------------------------------------------|
E|-5------5-9---9-7-5-4-10---10-12---12-10-9-7-5----------------------------|

G|--------------------------------------------------------------------------|
D|--------------------------------------------------------------------------|
A|--------------------------------------------------------------------------|
E|-9---9-7-5-4-10---12---12-10-9-7-5----------------------------------------|


Slow

G|--------------------------------------------------------------------------|
D|--------------------------------------------------------------------------|
A|--------------------------------------------------------------------------|
E|---9-----10----10-12----12-5----5-9----9-10----10-12~---------------------|


Chours 1

G|--------------------------------------------------------------------------|
D|--------------------------------------------------------------------------|
A|----------------------------------5-55555555555555-7-77777777777777-------|
E|5-55555555555555-9-99999999999999-----------------------------------------|

G|--------------------------------------------------------------------------|
D|--------------------------------------------------------------------------|
A|----------------------------------5-55555555555555-7-77777777777777-------|
E|5-55555555555555-9-99999999999999-----------------------------------------|


Chours 2

G|--------------------------------------------------------------------------|
D|--------------------------------------------------------------------------|
A|----------------------------------5-55555555555555-7-77777777777777-------|
E|5-55555555555555-9-99999999999999-----------------------------------------|

G|--------------------------------------------------------------------------|
D|--------------------------------------------------------------------------|
A|----------------------------------5-55555555555555-7-77777777777777-------|
E|5-55555555555555-9-99999999999999-----------------------------------------|


Chours 3

G|--------------------------------------------------------------------------|
D|--------------------------------------------------------------------------|
A|----------------------------------5-55555555555555-7-77777777777777-------|
E|5-55555555555555-9-99999999999999-----------------------------------------|

G|--------------------------------------------------------------------------|
D|--------------------------------------------------------------------------|
A|----------------------------------5-55555555555555-7-77777777777777-------|
E|5-55555555555555-9-99999999999999-----------------------------------------|


Solo

G|---------------------------------------------------------------------------|
D|---------------------------------------------------------------------------|
A|------------------------------5-555-55-55555-7-77777-7-5-4-----------------|
E|5-555-55-55555-9-999-99-99999------------------------------7-5-------------|

G|---------------------------------------------------------------------------|
D|---------------------------------------------------------------------------|
A|------------------------------5-555-55-55555-7-77777-7-5-4-----------------|
E|5-555-55-55555-9-999-99-99999------------------------------7-5-------------|

G|---------------------------------------------------------------------------|
D|---------------------------------------------------------------------------|
A|------------------------------5-555-55-55555-7-77777-7-5-4------55---------|
E|5-555-55-55555-9-999-99-99999------------------------------7-55------------|
Suggest correction
Give kudos to tab author, rate the tab!
1 2 3 4 5
comments
print report bad tab
guest
You may want to rate the tab now too:
select rating
Wanna post a correction for this tab? Suggest correction