Oops, an error
Loading. Please wait.

Rerun Chords

by Elan
1 view 1 this week
no commentswrite comment
1 2 3 4 5
3 more votes to show rating
add to favorites
launch autoscroll
font size
0
reset
transpose
0
reset
display chords
guitar tuner
Autoscroll
slow
fast
+/-
esc
set tempo
stop
Help us to improve Ultimate-Guitar.com Take our survey!
×
Author
Difficulty
Capo
novice
1st fret
About this tab version
Original version as found in this video: [https://www.youtube.com/watch?v=xcmehPmzx3w] All tabs are relative to capo. Strumming pattern in the verse is just one strum, then it can be played as wished through the rest of the song. Was this info helpful? Yes No
[Verse]

G              D             Bm          A      
  Let's do this all again someday
              G        D           Bm     A
  The same cast like a rerun
                 G          D     Bm     A
  Wouldn't change a thing
                      G           D    Bm    A     
  Though we have to leave some behind
                G           D    Bm   A
  To gain a few new ones
          G      D    Bm    A
  Throw us away
              G            D    Bm    A
  We'll come back anyway


[Chorus]

                 D           
  Leave a little light on
                 Em         
  Leave a little love on
         G     
  Take my heart
           D
  It's yours anyway          [x6]


(At the moment the chorus is sung for the 7th time:)

e|-------2---0------|--2---0--------------------|
B|--3----------3-0--|--------3-0-------------3--|
G|------------------|------------------2h4------|
D|------------------|---------------------------|
A|------------------|---------------------------|
E|------------------|---------------------------|

[Guitar solo]

e|--5-7-5---2--0------|--2-2--0---------------2--0-------|
B|---------------3-0--|---------3-0--------3--------3-3--|
G|--------------------|-------------2-4------------------|
D|--------------------|----------------------------------|
A|--------------------|----------------------------------|
E|--------------------|----------------------------------|

[Chorus]
                 D           
  Leave a little light on
                 Em         
  Leave a little love on
         G     
  Take my heart
           D
  It's yours anyway         [x4]



************************************

| h  Hammer-on

************************************
Suggest correction
Give kudos to tab author, rate the tab!
1 2 3 4 5
comments
print report bad tab
guest
You may want to rate the tab now too:
select rating
Wanna post a correction for this tab? Suggest correction