Oops, an error
Loading. Please wait.

Grounds For Divorce bass

version 1
version 1

Whole song

Interactive

by Elbow
5,786 views 12 this week
3 commentsread comments
1 2 3 4 5
1 last vote to show rating
add to favorites
×
Save as Personal and add changes to this tab that will be seen only by you. Learn more ›
×
You can save this tab as Personal to edit and correct it or add notes. All changes will be seen only by you. Learn more »
launch autoscroll
font size
0
reset
guitar tuner
edit
Autoscroll
slow
fast
+/-
esc
set tempo
stop
Author
Difficulty
----------------------------------------------------------------------------
		      GROUNDS FOR DIVORCE - Elbow
----------------------------------------------------------------------------

Tabbed By : Matthew Barron
e-mail: mattybarron@yahoo.co.uk

Tuning: Standard

Apologies but I could only get the bit after "There's a hole..."

1st Chorus:-

G|----------------|------------------|-----------------|-----------------|
D|----------------|------------------|-----------------|-----------------|
A|-------------5~-|-------------5-3~-|--------------5~-|-------------5-3~|
E|--5^v--3-0------|--5^v--3-0--------|--5^v---3-0------|--5^v--3-0-------|
 (bend up then down)
G|--------------------|------------------|
D|--------------------|------------------|
A|-------------5-8-5~-|-------------5-3~-|
E|--5^v--3-0----------|--5^v--3-0--------|

After Chorus:-

G|-----------------------------------|
D|--12-12-12-12-12-12-12-12-12\\\\0--|
A|-----------------------------------|
E|-----------------------------------|

2nd Chorus

G|----------------|------------------|-----------------|-----------------|
D|----------------|------------------|-----------------|-----------------|
A|-------------5~-|-------------5-3~-|--------------5~-|-------------5-3~|
E|--5^v--3-0------|--5^v--3-0--------|--5^v---3-0------|--5^v--3-0-------|

G|--------------------|------------------|
D|--------------------|------------------|
A|-------------5-8-5~-|-------------5-3~-| x2
E|--5^v--3-0----------|--5^v--3-0--------|


| /  slide up
| \  slide down
| h  hammer-on
| p  pull-off
| ~  vibrato
| +  harmonic
| x  Mute note
===============================================================================
Suggest correction
Creating personal tab
Creating personal tab
You can edit any tab online and save it as your Personal.

You can edit, replace or remove any tab part or add personal notes – all changes will be seen only by you.

Personal tabs can be accessed anytime from any device, even offline.
Learn more »
Give kudos to tab author, rate the tab!
1 2 3 4 5
comments
print report bad tab
3 comments total.
+1 reply
DomStables 294 Sep 21, 2008 03:20 AM

second verse:
G|--------------------------------------------------|
D|---------------15-17-18p17-15---------------------|
A|17-171717-1717----------------17-171717-1717-12\0-|
E|--------------------------------------------------|

and btw i think its all wrong... nice try though

0 reply
IndieJoe 1,997 Mar 31, 2009 08:01 AM

whats the ^v??

0 reply
InsomniaJunkie 10 Aug 21, 2009 08:31 PM

a bend would be my guess.

guest
You may want to rate the tab now too:
select rating
Wanna post a correction for this tab? Suggest correction