Oops, an error
Loading. Please wait.

Grounds For Divorce chords

version 2
version 2

Whole song

Interactive

by Elbow
16,953 views 30 this week
no commentswrite comment
1 2 3 4 5
x 4
add to favorites
×
Save as Personal and add changes to this tab that will be seen only by you. Learn more ›
×
You can save this tab as Personal to edit and correct it or add notes. All changes will be seen only by you. Learn more »
launch autoscroll
font size
0
reset
transpose
0
reset
simplify chords
display chords
guitar tuner
edit
Autoscroll
slow
fast
+/-
esc
set tempo
stop
Author
Difficulty
Unregistered
intermediate
Strumming
There is no strumming pattern for this song yet. and get +5 IQ
[Verse] 
Dm
Mondays is for drinking to the seldom seen kid
I've been working on a cocktail called Grounds for Divorce
Whoah

[Chorus]
Dm        Bb                       Am            Dm            Dm/C
There's a hole in my neighbourhood down which of late I cannot help but fall
Dm/C        Bb                       Am            Dm
There's a hole in my neighbourhood down which of late I cannot help but fall

[Solo]
    There's a  hole in  my  neigh-bour-hood  down  which of  late  I   can
e|------------------------------------------------------------1------------|
B|-----3----3---3----3--3-----3-----3----3-----1----1----3---------3-------|
G|--------------3-------------------------------------------------------2--|
D|-----0--------3--------------------------------2------------0------------|
A|--------------1-------1----------------0-----0---------------------------|
E|-------------------------------------------------------------------------|

   not  help  but      fall    There's a
e|-------1--------------0--------------|
B|--3----------3--------3-------1-----3|
G|-------------2--------2----2---------|
D|-------------------------------------|
A|-------3--------3-----3--------------|
E|-------------------------------------|

[Outro] (x2)
Dm       C  
C
Mondays is for drinking to the seldom seen kid
Dm
Oooo, Oooo
Suggest correction
Creating personal tab
Creating personal tab
You can edit any tab online and save it as your Personal.

You can edit, replace or remove any tab part or add personal notes – all changes will be seen only by you.

Personal tabs can be accessed anytime from any device, even offline.
Learn more »
comments
print report bad tab
guest
Wanna post a correction for this tab? Suggest correction