Oops, an error
Loading. Please wait.

Mexican Standoff bass

version 1
version 1

Whole song

  • Based on bass player performance. Higher tone.

Interactive

by Elbow
780 views 3 this week
1 commentread comment
1 2 3 4 5
3 more votes to show rating
add to favorites
×
Save as Personal and add changes to this tab that will be seen only by you. Learn more ›
×
You can save this tab as Personal to edit and correct it or add notes. All changes will be seen only by you. Learn more »
launch autoscroll
font size
0
reset
guitar tuner
edit
Autoscroll
slow
fast
+/-
esc
set tempo
stop
Ok, this is my first tab, I think this should be alright. Enjoy :)
Listen to the song for the correct rhythm.

riff 1
G|-----------------------------|
D|-----------------------------|
A|-----------------------------|
D|-0--0--0-0-5-0-4--0--0-0-2-0-|

riff 2
G|--------------------------------------------------------|
D|------------------------------------------4---------5-5-|
A|-4-0--0-0-4-0-5--0--0-0-5-0-7--0--0-0-7-0----0--0-0-----|
D|--------------------------------------------------------|

riff 1 x4
riff 2 x2
riff 1 x4
riff 2 x2
riff 1 x4
riff 2 x2
riff 1 x4
riff 2 x2
riff 1 x8
riff 2 x2
riff 1 x4
riff 2 x2

Well, that's it ^_^

            
            
Suggest correction
Creating personal tab
Creating personal tab
You can edit any tab online and save it as your Personal.

You can edit, replace or remove any tab part or add personal notes – all changes will be seen only by you.

Personal tabs can be accessed anytime from any device, even offline.
Learn more »
Give kudos to tab author, rate the tab!
1 2 3 4 5
comments
print report bad tab
1 comment total.
0 reply
Kondeeka 156 Oct 20, 2010 01:52 PM

After listening a little better, riff 1 sounds better one octave lower, and I wrote riff 2 incorrectly, it should be:

riff 1
D|-0--0--0-0-5-0-4-0--0-0-2-0-|
A|----------------------------|
D|----------------------------|
G|----------------------------|

riff 2
D|--------------------------------------------------------|
A|-4-0--0-0-4-0-5--0--0-0--5-0-7-0--0-0---7-0---0-0-0-----|
D|--------------------------------------------4-------5-5-|
G|--------------------------------------------------------|

Order is still correct :p

guest
You may want to rate the tab now too:
select rating
Wanna post a correction for this tab? Suggest correction