Oops, an error
Loading. Please wait.

Shadows Of Death Tab

136 views 1 this week
no commentswrite comment
1 2 3 4 5
please rate
add to favorites
launch autoscroll
font size
0
reset
how to read this tab
guitar tuner
Autoscroll
slow
fast
+/-
esc
set tempo
stop
Help us to improve Ultimate-Guitar.com Take our survey!
×
Contributor
Its in standard d tuning with a droped tuning to c/ means slur or slide note ~hammer on

Intro

 D  ------------------------------------------------------------|
 A  ------------------------------------------------------------|
 F  -------------------------------------77554455---------------|repeat 4x
 C  -00000-5/3-2/3/5/3/2/3----00000-5/3--55332233---------------|
 G  -00000-5/3-2/3/5/3/2/3----00000-5/3-------------------------|
 C  -00000-5/3-2/3/5/3/2/3----00000-5/3-------------------------|


 Bridge 1 Lead
its harminzed in 3rds so to do the lead you need 2 guitars or a harminizer
this is the lower key im using. 
 D  ------------------------------------------------------------|
 A  ------------------------1---------1------1------------------|
 F  ----------0-------0-2/3/--2/3--323-3-2/3/--2/3---0----------|
 C  --3-3/2/3--/3/2-3-------------------------------3--32-------|
 G  ------------------------------------------------------------|
 C  ------------------------------------------------------------|


 D  ------------------------------------------------------------|
 A  --3-5/6--3~5-3~5-1------------0---0-------------------------|
 F  ---------------------3-2-3--23--23-------0------------------|
 C  ---------------------------------------3---32---------------|
 G  ------------------------------------------------------------|
 C  ------------------------------------------------------------|

        Rhythem behind the lead
 D  -------------------------------------------------------------|
 A  -------------------------------------------------------------|
 F  -------------------------------------------------------------|
 C  -0000000----333333--55555---000000---33333--55555--77777-----|
 G  -0000000----333333--55555---000000---33333--55555--77777-----|
 C  -0000000----333333--55555---000000---33333--55555--77777-----|

 D  -------------------------------------------------------------|
 A  -------------------------------------------------------------|
 F  -------------------------------------------------------------|
 C  --55555------------------------------------------------------|
 G  --55555------------------------------------------------------|
 C  --55555------------------------------------------------------|

 

 D  -------------------------------------------------------------|
 A  -------------------------------------------------------------|
 F  -------------------------------------------------------------|
 C  -0000000----333333--55555---000000---33333--55555--33333---0-|
 G  -0000000----333333--55555---000000---33333--55555--33333---0-|
 C  -0000000----333333--55555---000000---33333--55555--33333---0-|






         

         Verse
 D  ------------------------------------------------------------|
 A  ------------------------1-----------------------------------|
 F  ---------7/3/1-2-----23--323---0----------------------------| reapeat 4x
 C  -00000---7/3/3-2---23-------323-2---------------------------|
 G  -00000---5/5/3-0--------------------------------------------|
 C  -00000------------------------------------------------------|

           Chorus
 D  ------------------------------------------------------------|
 A  ------------------------------------------------------------|
 F  -------------------------------------77554455---------------|
 C  -00000-5/3-2/3/5/3/2/3----00000-5/3--55332233---------------|
 G  -00000-5/3-2/3/5/3/2/3----00000-5/3-------------------------|
 C  -00000-5/3-2/3/5/3/2/3----00000-5/3-------------------------|


 D  -------------------------------------------------------------|
 A  --------------------------------------7-5-5050-0-------------|
 F  ----------------------------------------------3--------------|
 C  -0-0000-5/3-2/3/5/3/2/3----00000-5/3--5-3-3232-2-------------|
 G  -0-0000-5/3-2/3/5/3/2/3----00000-5/3----------5--------------|
 C  -0-0000-5/3-2/3/5/3/2/3----00000-5/3-------------------------|

     then is reapeats the opening lead and verse and chorus one more time

Break down!!!!


Its in standard d tuning with a droped tuning to c
   / means slur or slide note ~hammer on

Intro

 D  ------------------------------------------------------------|
 A  ------------------------------------------------------------|
 F  -------------------------------------77554455---------------|repeat 4x
 C  -00000-5/3-2/3/5/3/2/3----00000-5/3--55332233---------------|
 G  -00000-5/3-2/3/5/3/2/3----00000-5/3-------------------------|
 C  -00000-5/3-2/3/5/3/2/3----00000-5/3-------------------------|


 Bridge 1 Lead
its harminzed in 3rds so to do the lead you need 2 guitars or a harminizer
this is the lower key im using. 
 D  ------------------------------------------------------------|
 A  ------------------------1---------1------1------------------|
 F  ----------0-------0-2/3/--2/3--323-3-2/3/--2/3---0----------|
 C  --3-3/2/3--/3/2-3-------------------------------3--32-------|
 G  ------------------------------------------------------------|
 C  ------------------------------------------------------------|


 D  ------------------------------------------------------------|
 A  --3-5/6--3~5-3~5-1------------0---0-------------------------|
 F  ---------------------3-2-3--23--23-------0------------------|
 C  ---------------------------------------3---32---------------|
 G  ------------------------------------------------------------|
 C  ------------------------------------------------------------|

        Rhythem behind the lead
 D  -------------------------------------------------------------|
 A  -------------------------------------------------------------|
 F  -------------------------------------------------------------|
 C  -0000000----333333--55555---000000---33333--55555--77777-----|
 G  -0000000----333333--55555---000000---33333--55555--77777-----|
 C  -0000000----333333--55555---000000---33333--55555--77777-----|

 D  -------------------------------------------------------------|
 A  -------------------------------------------------------------|
 F  -------------------------------------------------------------|
 C  --55555------------------------------------------------------|
 G  --55555------------------------------------------------------|
 C  --55555------------------------------------------------------|

 

 D  -------------------------------------------------------------|
 A  -------------------------------------------------------------|
 F  -------------------------------------------------------------|
 C  -0000000----333333--55555---000000---33333--55555--33333---0-|
 G  -0000000----333333--55555---000000---33333--55555--33333---0-|
 C  -0000000----333333--55555---000000---33333--55555--33333---0-|






         

         Verse
 D  ------------------------------------------------------------|
 A  ------------------------1-----------------------------------|
 F  ---------7/3/1-2-----23--323---0----------------------------| reapeat 4x
 C  -00000---7/3/3-2---23-------323-2---------------------------|
 G  -00000---5/5/3-0--------------------------------------------|
 C  -00000------------------------------------------------------|

           Chorus
 D  ------------------------------------------------------------|
 A  ------------------------------------------------------------|
 F  -------------------------------------77554455---------------|
 C  -00000-5/3-2/3/5/3/2/3----00000-5/3--55332233---------------|
 G  -00000-5/3-2/3/5/3/2/3----00000-5/3-------------------------|
 C  -00000-5/3-2/3/5/3/2/3----00000-5/3-------------------------|


 
repeats 1 mores time verse and chorus that and theres a solo but i can not tab it


Break Down


 D  -------------------------------------------------------------|
 A  -------------------------------------------------------------|
 F  -------------------------------------------------------------|
 C  --000---000---3/2/5/3----------------------------------------|
 G  --000---000---3/2/5/3----------------------------------------|Repeat 4x 
 C  --000---000---3/2/5/3----------------------------------------|



 D  ----------------------------------------------------------------|
 A  ----------------------------------------------------------------|
 F  ----------------------------------------------------------------|
 C  --0-000----7-777/9-999/10-10-10-10/12---------------------------|
 G  --0-000----x-xxx/x-xxx/x--x--x--x/x-----------------------------|4x
 C  --0-000----5-555/7-777/8--8--8--8/10----------------------------|




back to the chrous and then end
Suggest correction new What's this?
You can suggest a correction to this tab. Community and Mods will review your correction and vote to approve or reject it.
comments
We did not receive enough feedback on this tab! Please rate:
print report bad tab
1 2 3 4 5
guest
You may want to rate the tab now too:
select rating
Please do not post tabs as comments. Select "correction" instead!