Oops, an error
Loading. Please wait.

Throw Me To The Wolves tab

1,531 views 9 this week
no commentswrite comment
1 2 3 4 5
1 last vote to show rating
add to favorites
×
Save as Personal and add changes to this tab that will be seen only by you. Learn more ›
×
You can save this tab as Personal to edit and correct it or add notes. All changes will be seen only by you. Learn more »
launch autoscroll
font size
0
reset
how to read this tab
guitar tuner
edit
Autoscroll
slow
fast
+/-
esc
set tempo
stop
Author
Difficulty
This is my first time submitting a tab here so please correct  me if I'm wrong. And you can freely
use it in order to make a better tab version for this song.
@AfuAfunan, from Malaysia with love.

Chords to be used:
C    x32030
G    320030
Em   02200x


Intro:

e|-----------------------------|---------------------------|----------------------------|
B|----------3-0-----------3-0--|--------3-0-----------3-0--|--------3-0------------3-0--|
G|--------0-----0---0----------|------0-----0---0----------|------0-----0---0-----------|
D|------2---------2-----2------|----0---------0-----0------|----2---------2------2------|
A|----3---------------3--------|---------------------------|--3----------------3--------|
E|-----------------------------|--3---------------3--------|----------------------------|

e|-----------------------|
B|--------0~---------0~--|
G|------0----0-----0-----|
D|----2----------2-------|
A|--2----------2---------|
E|-----------------------|

Verse 1(try to listen to the song to get the timing):

When the words that you throw
Do so much more damage than stones
Down the road later on, let it go.

You know that sort of guilt
Can tear down anything that you try to build
So relax I'll see you in a month.

e|-----------------------------|---------------------------|----------------------------|
B|----------3-0-----------3-0--|--------3-0-----------3-0--|--------3-0------------3-0--|
G|--------0-----0---0----------|------0-----0---0----------|------0-----0---0-----------|
D|------2---------2-----2------|----0---------0-----0------|----2---------2------2------|
A|----3---------------3--------|---------------------------|--3----------------3--------|
E|-----------------------------|--3---------------3--------|----------------------------|

e|-----------------------|
B|--------0~---------0~--|
G|------0----0-----0-----|
D|----2----------2-------|
A|--2----------2---------|
E|-----------------------|


Pre-chorus:

C                                 Em
  Do you still talk when you're asleep?
                                C
Do you think of me when you fell free
                  
         Em
After hours, your sinking deep

Did you think of me?

Interlude:

e|------------------------------------|
B|--------------3-0-----------3-3/7~--|
G|--------0---0-----0---0-------------|
D|------2---2---------2-----2---------|
A|----3-------------------3-----------|
E|------------------------------------|

Chorus:

C                                   Em
It never rains but it pours all week
Did you think of me?
C                                           Em
When your halfway drunk and you're feeling mean
Do you think of me?

Verse 2 (same as verse 1) :

No you aren't worth the weight
Off all of the gold it would take
To pay back all your debts
So forget it

So here's where the wave broke
And turned back to the sea
You said "you thought you could trust me"
I said "I thought you looked guilty"
And I knew I was right

Verse 3 :

C                     G
Throw me to the wolves
Em
 Mention me by name
C                G
Pour oil on our troubled waters
Em
And then set it to flame
Did you think of me?

            
            
Suggest correction
Creating personal tab
Creating personal tab
You can edit any tab online and save it as your Personal.

You can edit, replace or remove any tab part or add personal notes – all changes will be seen only by you.

Personal tabs can be accessed anytime from any device, even offline.
Learn more »
Give kudos to tab author, rate the tab!
1 2 3 4 5
comments
print report bad tab
guest
You may want to rate the tab now too:
select rating
Wanna post a correction for this tab? Suggest correction