Oops, an error
Loading. Please wait.

Glorious Warrior chords

37 views 3 this week
no commentswrite comment
1 2 3 4 5
3 more votes to show rating
add to favorites
×
Save as Personal and add changes to this tab that will be seen only by you. Learn more ›
×
You can save this tab as Personal to edit and correct it or add notes. All changes will be seen only by you. Learn more »
launch autoscroll
font size
0
reset
transpose
0
reset
display chords
guitar tuner
edit
Autoscroll
slow
fast
+/-
esc
set tempo
stop
Strumming
There is no strumming pattern for this song yet. and get +5 IQ
Glorious Warrior -- Tab and Chord

Chords:
Db: 446664
Db*: 9 11 11 10 9 9
Ab: 455644
Gb: 244322
Gb*: muted

^in verse 2, you can either play the chords listed, or play Synth 1 while you sing

These three synth riffs repeat throughout the song:

Synth 1: (Alternately play Gb  Ab  Db Ab Gb)

e|----------------4------------------------------------------------------------------------------------|
B|---------4--6-----4----6------------------------------4----6----4------------------------------------|
G|---------------------------------6----5----3----------------------------------6---6----6-------------|
D|-----------------------------------------------------------------------------------------------------|
A|-----------------------------------------------------------------------------------------------------|
E|-----------------------------------------------------------------------------------------------------|

Synth 2: (Alternatively play Db Ab Gb)

e|------------------------------------------------------------|
B|---------------7---6----4----6------------------------------|
G|-------------------------------------6----------------------|
D|------------------------------------------------------------|
A|------------------------------------------------------------|
E|------------------------------------------------------------|

Synth 3 (base run brought up an octave: (Alternatively play Gb)

e|------------------------------------------------------------------------------------|
B|------------------------------------------------------------------------------------|
G|------------------------------------------------------------------------------------|
D|------------------------------------------------------------------------------------|
A|------------------------------------------------------------------------------------|
E|----------2-2-2-2----4-4-4-4------7-7--9-13---14--14--14----13--11--9--2------------|

Intro:

Intro
Gb*
Gb  Ab  Db Ab Gb x2

Synth 1

Verse 1:

Db                 Gb
Please believe me
Db                Ab      
Falling for you was wrong (Synth 2)
         Gb              Ab                  Db  Ab Gb
When the problem picture frame is on the wall
Db      Ab              Db Ab Gb
I never know what to do 

Synth 1

Db               
Please believe me(Synth 3)
Db        Ab         Db Ab Gb
I never knew it was wrong

Chorus:

G             Ab Db* 
No, it’s only you   
             Gb               Db                 Ab        Db*              
It’s hard to know, I see your face and then it’s gone again
Gb               Ab Db*
Oh, it’s only you
Gb      Ab              Db Ab Gb                             
Even if we don’t make it


Verse 2:

Gb    Db
Oh, I know
Gb                Ab    
Those who go high can fall (synth 2)
          Gb^           Ab               Db Ab Gb
She was everything I wanted, that was all
Gb           Ab           Db Ab Gb
No need to know what to do
              Gb Ab     
I swear to god
Db          Gb
I swear to god
Gb Ab           Db Ab Gb
I swear to god
Db                 Gb
Please believe me (synth 3)
Db        Ab             Db Ab Gb 
I never knew it was wrong


Chorus:


Gb            Ab Db*
No, it’s only you
             Gb               Db                  Ab       Db*
It’s hard to know, I see your face and then it’s gone again
Gb            Ab Db 
Oh, it’s only you
               Gb                          Ab        Db*
It’s hard to go another way and let goodbye begin
Gb*             (let ring)                Gb*
I don’t want to die, stay for more (pause)


Gb            Ab Db
No, it’s only you
             Gb               Db                  Ab       Db*
It’s hard to know, I see your face and then it’s gone again
Gb            Ab  Db
Oh, it’s only you
Gb      Ab                Db Ab Gb
Even if we don’t make it


Gb            Ab Db*
No, it’s only you
             Gb               Db                  Ab       Db*
It’s hard to know, I see your face and then it’s gone again
Gb            Ab Db*
Oh, it’s only you
              Gb                           Ab    Db
It’s hard to go another way and let goodbye begin

Outro: (*note: the "woah"s imitate the synth, you can simply play the chords as well)

Gb     Db* Ab
Woah   Woh-oh  
Db* Gb Db* Ab 
Wo- oh Wo- oh
Db* Gb Db* Ab 
Wo- oh Wo- oh  
Db* Gb Db* Ab 
Wo- oh Wo- oh
Db Gb

            
            
Suggest correction
Creating personal tab
Creating personal tab
You can edit any tab online and save it as your Personal.

You can edit, replace or remove any tab part or add personal notes – all changes will be seen only by you.

Personal tabs can be accessed anytime from any device, even offline.
Learn more »
Give kudos to tab author, rate the tab!
1 2 3 4 5
comments
print report bad tab
guest
You may want to rate the tab now too:
select rating
Wanna post a correction for this tab? Suggest correction