Oops, an error
Loading. Please wait.

10538 Overture Tab

22,040 views 33 this week
1 commentread comment
1 2 3 4 5
x 10
add to favorites
launch autoscroll
font size
0
reset
how to read this tab
guitar tuner
×
Best way to learn
"10538 Overture"
Autoscroll
slow
fast
+/-
esc
set tempo
stop
1035 OVERTURE TAB BY ELECTRIC LIGHT ORCHESTRA @ ULTIMATE GUITAR .COM

THIS IS IN ONE STEP DOWN TUNED HIGH TO LOW DAFCGD

D---------------------------------------------------------------------|
A----3--3-----3--3-----3--3-----3--3----------------------------------|
F---2--2--2--2--2--2--2--2--2--2--2-----------------------------------|
C--0--0--0------------------------------------------------------------|
G-----------3--3--3--2--2--2--1--1--1-0-------------------------------|
D---------------------------------------------------------------------|

THATS THE ONLY GUITAR IN THE SONG THE REST IS ORCHESTRATED
Suggest correction
comments
print report bad tab
1 comment total.
+1 reply
oldbullallen 10 Jan 07, 2014 09:17 PM

D---------------------------------------------------------------------|
A----3--3-----3--3-----3--3-----3--3----------------------------------|
F---2--2--2--2--2--2--0--0--2--0--0-----------------------------------|
C--0--0--0------------------------------------------------------------|
G-----------3--3--3--2--2--2--1--1--1-0-------------------------------|
D---------------------------------------------------------------------|

Pretty sure it's actually this.

guest
You may want to rate the tab now too:
select rating
Wanna post a correction for this tab? Suggest correction