Oops, an error
Loading. Please wait.

All Over The World Bass Tab

version 1
version 1

Whole song

2,063 views 6 this week
no commentswrite comment
1 2 3 4 5
please rate
add to favorites
launch autoscroll
font size
0
reset
guitar tuner
Autoscroll
slow
fast
+/-
esc
set tempo
stop
Help us to improve Ultimate-Guitar.com Take our survey!
×
Author
++++++++++++++++++++++++++++++++++++++++++++++++
| Electric Light Orchestra- All Over The World |
++++++++++++++++++++++++++++++++++++++++++++++++


"Everybody gonna have a good time..."


Tuning: EADG

Intro
1.
G|---------------------|
D|---------------------|
A|-5~--------5~--------|
E|---------------------|

2.
G|-------------------------------------|
D|-------------------------------------|
A|-5-5-5-5-5-5-5-0255-5-5-5-5-5-5-0255-|
E|-------------------------------------|

Verse
"Everybody all around the world..."
3.
G|----7--7-----------------------------------------------------------------|
D|---------------4-4--4-----------------------------0-0-012222----333------|
A|-55---5--55-------------2-5522---1-5511-55-5-55422-2-2------3333---00000-|--x2
E|------------22----22--33-------33----------------------------------------|

Chorus
"All over the world..."
4.
G|--9-9--11-11-----------9-9--11-11-----------9-9--11-11---12--12---14--14-|
D|--------------9-9-9-9--------------9-9-9-9-------------------------------|
A|-7-7--9--9------------7-7--9--9------------7-7--9--9---10--10---12--12---|
E|-------------7-7-7-7--------------7-7-7-7--------------------------------|

Outro
5.
G|-------------------------------------|
D|-------------------------------------|
A|-5-5-5-5-5-5-5-0255-5-5-5-5-5-5-0255-|
E|-------------------------------------|

Verse
"Everybody walking down the street..."
6.
G|----7--7-----------------------------------------------------------------|
D|---------------4-4--4-----------------------------0-0-012222----333------|
A|-55---5--55-------------2-5522---1-5511-55-5-55422-2-2------3333---00000-|--x2
E|------------22----22--33-------33----------------------------------------|

Chorus
"All over the world..."
7.
G|--9-9--11-11-----------9-9--11-11-----------9-9--11-11---12--12---14--14-|
D|--------------9-9-9-9--------------9-9-9-9-------------------------------|
A|-7-7--9--9------------7-7--9--9------------7-7--9--9---10--10---12--12---|
E|-------------7-7-7-7--------------7-7-7-7--------------------------------|

Bridge
8.
G|---------------------------------------------------------------|
D|---------------------------------------------------------------|
A|-5x---542x---20-------------0-0-5x---542x---20-------------0-0-|
E|---------------3x---320x--0-------------------3x---320x--------|

"London, Hamburg, Paris, Rome..."
9.
G|-------------------------------------------------------------------|
D|------------------------------------------7777777------------------|
A|---------------------------------0-0-0-0-0--------0-0-0-0-33333333-|
E|-3-3-3-3-3-3-3-3-3-3-3-3-3-3-3-3-----------------------------------|

Chorus
"All over the world..."
10.
G|--9-9--11-11-----------9-9--11-11-----------9-9--11-11---12--12---14--14-|
D|--------------9-9-9-9--------------9-9-9-9-------------------------------|
A|-7-7--9--9------------7-7--9--9------------7-7--9--9---10--10---12--12---|
E|-------------7-7-7-7--------------7-7-7-7--------------------------------|

Outro
11.
G|-------------------------------------|
D|-------------------------------------|
A|-5-5-5-5-5-5-5-0255-5-5-5-5-5-5-0255-|
E|-------------------------------------|

Verse
"Everybody all around the world..."
12.
G|----7--7----------------------------------------------------------------------|
D|---------------4-4--4-------------------------------4-4--4------5-5-----------|
A|-55---5--55-------------2-5522---1-5511-55555555-----------------------1-5511-|
E|------------22----22--33-------33----------------22----22--33333-3--33--------|

"Everybody gonna have a good time..."
13.
G|-----------------------------------|
D|--------------0----------------0---|
A|-55555542-2202-20-55555542-2202-20-|
E|-----------------------------------|

Chorus
"All over the world..."
14.
G|--9-9--11-11-----------9-9--11-11-----------9-9--11-11---12--12---14--14-|
D|--------------9-9-9-9--------------9-9-9-9-------------------------------|
A|-7-7--9--9------------7-7--9--9------------7-7--9--9---10--10---12--12---|
E|-------------7-7-7-7--------------7-7-7-7--------------------------------|

Outro
15.
G|-------------------|
D|-------------------|
A|-5-5-5-5-5-5-5-025-|
E|-------------------|

Chorus
"All over the world..."
16.
G|--9-9--11-11-----------9-9--11-11-----------9-9--11-11----------|
D|--------------9-9-9-9--------------9-9-9-9--------------9-9-9-9-|
A|-7-7--9--9------------7-7--9--9------------7-7--9--9------------|
E|-------------7-7-7-7--------------7-7-7-7--------------7-7-7-7--|

17.
G|--9-9--11-11---------------9-9--11-11-----------9-9--11-11-------------|
D|---------------------------------------9-9-9-9-------------------------|
A|-7-7--9--9----------------7-7--9--9------------7-7--9--9---------------|
E|--------------7-7-7-7-7-7-------------7-7-7-7--------------7-5-3-7-5-3-|

Outro
18.
G|--9-9--11-11--------------------------|
D|--------------------------------------|
A|-7-7--9--9----10-9-7-10-9-7-5~--------|
E|--------------------------------------|

Please rate thanks!

Lyrics:

Everybody all around the world, gotta tell you what I just heard
There's gonna be a party all over the world
I got a message on the radio, but where it came from I don't really know
And I heard these voices calling all over the world

All over the world, everybody got the word
Everybody everywhere is gonna feel tonight

Everybody walkin' down the street, everybody movin' to the beat
They're gonna get hot down in the U.S.A. (New York, Detroit, L.A.)
We're gonna take a trip across the sea, everybody come along with me
We're gonna hit the night down in gay Pareee

London, Hamburg, Paris, Rome, Rio, Hong Kong, Tokyo
L.A., New York, Amsterdam, Monte Carlo, Shard End and us

Everybody all around the world, gotta tell you what I just heard
Everybody walkin' down the street, I know a place where we all can meet
Everybody gonna have a good time, everybody will shine till the daylight



+++++++++++
| Raileff |
+++++++++++
Suggest correction
Give kudos to tab author, rate the tab!
1 2 3 4 5
comments
print report bad tab
guest
You may want to rate the tab now too:
select rating
Wanna post a correction for this tab? Suggest correction