Oops, an error
Loading. Please wait.

Cant Get It Out Of My Head bass

version 1
version 1

Whole song

Interactive

627 views 9 this week
4 commentsread comments
1 2 3 4 5
x 5
add to favorites
×
Save as Personal and add changes to this tab that will be seen only by you. Learn more ›
×
You can save this tab as Personal to edit and correct it or add notes. All changes will be seen only by you. Learn more »
launch autoscroll
font size
0
reset
guitar tuner
edit
Autoscroll
slow
fast
+/-
esc
set tempo
stop
Author
Difficulty
-----------------------------------------------------------------------------
                                          Artist - E.L.O
                                         ****************
                                Song - Can't Get It Out Of My Head  
                               ************************************
                                     Album - Eldorado (1974)  
                                    *************************
                                       Tabbed By - Ayreon77
                                      **********************
-----------------------------------------------------------------------------
Tuning = Standard


INTRO
******
G|------|-------|
D|------|-------|
A|------|-------|
E|-8----|-8-----|


-----------------------
VERSE 1
********
G|-------|-------|-------|-------|--------|--------|--------|--------|
D|-------|-------|-------|-------|--------|--------|--------|--------|
A|-------|-------|-------|-------|--------|-5--5-5-|--------|--------|
E|-8-----|-5-----|-8-----|-5-----|-1--1-1-|--------|-1--1-1-|-5--3-3-|


-----------------------
CHORUS
*******
G|------------------------|------------------------|------------------------|-----------------------|
D|------------------------|------------------------|------------------------|-----------------------|
A|-3---3-3---3-3---3------|-3---3-3---3-3---3------|-3---3-3---3-3---3------|-3---3---------------s-|
E|-------------------3--3-|-------------------3--3-|-------------------3--3-|-------3---3-1---1-3-\-|


-----------------------
VERSE 2
********
G|-------------------------|-------------------------|
D|-------------------------|-------------------------|
A|-------------------------|-------------------------|
E|-8---8-8---8-8---8-8---8-|-5---5-5---5-5---5-5---5-|X2


G|---------|--------|--------|--------|
D|---------|--------|--------|--------|
A|---------|-5--5-5-|--------|--------|
E|-1---1-1-|--------|-1--1-1-|-5--3-3-|


-----------------------
CHORUS
*******
G|------------------------|------------------------|------------------------|---------------------|
D|------------------------|------------------------|------------------------|---------------------|
A|-3---3-3---3-3---3------|-3---3-3---3-3---3------|-3---3-3---3-3---3------|-3---3---------------|
E|-------------------3--3-|-------------------3--3-|-------------------3--3-|-------3---3-1---1-3-|


-----------------------
BREAK
******
G|---------|---------|------------------|---------|---------|------------------|
D|---------|---------|------------------|---------|---------|------------------|
A|-3---3-3-|-3---3-3-|------------------|-3---3-3-|-3---3-3-|------------------|
E|---------|---------|-1-1-1-1--3-3-3-3-|---------|---------|-1-1-1-1--3-3-3-3-|


G|---------|---------|------------------|---------|---------|--------------------------------------------|
D|---------|---------|------------------|---------|---------|--------------------------------------------|
A|-3---3-3-|-3---3-3-|------------------|-3---3-3-|-3---3-3-|----------------------------1-1-1-1--3-~~~~-|
E|---------|---------|-1-1-1-1--3-3-3-3-|---------|---------|-1-1-1-1--3-3-3-3--4-4-4-4------------------|


-----------------------
VERSE 2
********
G|-------------|-------------------------|-------------------------|-------------------------|
D|-------------|-------------------------|-------------------------|-------------------------|
A|-------------|-------------------------|-------------------------|-------------------------|
E|-8---8-8---8-|-5---5-5---5-5---5-5---5-|-8---8-8---8-8---8-8---8-|-5---5-5---5-5---5-5---5-|


G|-------------|-------------|-------------|---------|
D|-------------|-------------|-------------|-7---5-5-|
A|-8---8-8---8-|-5---5-5---5-|-8---8-8---8-|---------|
E|-------------|-------------|-------------|---------|


-----------------------
CHORUS
*******
G|------------------------|------------------------|------------------------|-----------------|
D|------------------------|------------------------|------------------------|-----------------|
A|-3---3-3---3-3---3------|-3---3-3---3-3---3------|-3---3-3---3-3---3------|-3---------------|
E|-------------------3--3-|-------------------3--3-|-------------------3--3-|-----3---1---1-3-|


G|------------------------|------------------------|------------------------|---------------------|
D|------------------------|------------------------|------------------------|---------------------|
A|-3---3-3---3-3---3------|-3---3-3---3-3---3------|-3---3-3---3-3---3------|-3---3---------------|
E|-------------------3--3-|-------------------3--3-|-------------------3--3-|-------3---3-1---1-3-|


-----------------------
OUTRO
******
G|-----------------|-----------------|--------------------------------------------|
D|-----------------|-----------------|--------------------------------------------|
A|-3-3-3-3-3-3-3-3-|-3-3-3-3-3-3-3-3-|----------------------------1-1-1-1--3-~~~~-|
E|-----------------|-----------------|-1-1-1-1--3-3-3-3--4-4-4-4------------------|



ENJOY........

            
            
Suggest correction
Creating personal tab
Creating personal tab
You can edit any tab online and save it as your Personal.

You can edit, replace or remove any tab part or add personal notes – all changes will be seen only by you.

Personal tabs can be accessed anytime from any device, even offline.
Learn more »
comments
print report bad tab
4 comments total. Showing first comments.
0 reply
croyalbirdman13 10 Oct 05, 2016 02:02 AM

It's good but a little off. Everything on the lower string should be one lower e.g. 8 -> 7, 5 -> 4, 4 -> 3, 3 -> 2, and 1 -> 0

0 reply
ayreon77 21,833 Oct 05, 2016 08:04 AM

I,ll check into it and if you right i'll fix it thx.

0 reply
croyalbirdman13 10 Oct 05, 2016 05:59 PM

haha funny story. i was an idiot. i tuned my bass wrong. it's right

guest
You may want to rate the tab now too:
select rating
Wanna post a correction for this tab? Suggest correction