Oops, an error
Loading. Please wait.

Confusion Bass

version 1
version 1

Whole song

Interactive

1,287 views 12 this week
no commentswrite comment
1 2 3 4 5
x 4
add to favorites
launch autoscroll
font size
0
reset
guitar tuner
×
Best way to learn
"Confusion"
Autoscroll
slow
fast
+/-
esc
set tempo
stop
Author
+++++++++++++++++++++++++++++++++++++++
| Electric Light Orchestra- Confusion |
+++++++++++++++++++++++++++++++++++++++


"Dark is the road you wander and as you stand there under the starry sky..."

Tuning: EADG



Intro
1.
G|----------------------------------------------------------------------------|
D|----------------------------------------3~--2~--00-----3~--2~--00-----------|
A|-3~--33~--0~--00~--7~--77-7\3~--33~---3------------3~-----------------------|
E|------------------------------------------------------------------3~--------|

Verse
"Everywhere the sun is shining..."
2.
G|--------------------------------------------------------------------------|
D|----------------------------------------------------------------------5-3-|
A|-3~--33~--0~--00~--5~--55~-----------3~--33~--0~--00~--5~--55~------------|
E|----------------------------3~--33~-----------------------------3~--3-----|

Chorus
"Confusion..."
3.
G|--------------------------------------------------------------------------|
D|-------------------3~--33~--3~--3-3-5-3~--2~--00-----3~--2~--00-----------|
A|-3~--33~--3~--33~--------------------------------3~-----------------------|
E|----------------------------------------------------------------3~--------|

Outro
4.
G|---------------------------------------|
D|---------------------------------------|
A|-3~--33~--0~--00~--7~--77-7\3~--33~--3-|
E|---------------------------------------|

5.
G|----------------------------------------------------------------|
D|----------------0-0-0x-----0-2x-----------------0-0-0-----------|
A|----0-3x-----------------3----------0-3x------------------------|
E|--1--------0x---------------------1--------0x----------33333333-|

Verse
"Everynight you're out there, darling..."
6.
G|--------------------------------------------------------------------------|
D|----------------------------------------------------------------------5-3-|
A|-3~--33~--0~--00~--5~--55~-----------3~--33~--0~--00~--5~--55~------------|
E|----------------------------3~--33~-----------------------------3~--3-----|

Chorus
"Confusion..."
7.
G|--------------------------------------------------------------------------|
D|-------------------3~--33~--3~--3-3-5-3~--2~--00-----3~--2~--00-----------|
A|-3~--33~--3~--33~--------------------------------3~-----------------------|
E|----------------------------------------------------------------3~--------|

Outro
8.
G|---------------------------------------|
D|---------------------------------------|
A|-3~--33~--0~--00~--7~--77-7\3~--33~--3-|
E|---------------------------------------|

9.
G|----------------------------------------------------------------|
D|----------------0-0-0x-----0-2x-----------------0-0-0-----------|
A|----0-3x-----------------3----------0-3x------------------------|
E|--1--------0x---------------------1--------0x----------33333333-|

Verse
"Dark is the road you wander..."
10.
G|--------------------------------------------------------------------------|
D|----------------------------------------------------------------------5-3-|
A|-3~--33~--0~--00~--5~--55~-----------3~--33~--0~--00~--5~--55~------------|
E|----------------------------3~--33~-----------------------------3~--3-----|

Chorus
"Confusion..."
11.
G|--------------------------------------------------------------------------|
D|-------------------3~--33~--3~--3-3-5-3~--2~--00-----3~--2~--00-----------|
A|-3~--33~--3~--33~--------------------------------3~-----------------------|
E|----------------------------------------------------------------3~--------|

Outro
12.
G|--------------------------------------------------------------------------------|
D|--------------------------------------------------------------------------------|
A|-3~--33~--0~--00~--7~--77~--8~--88~--3~--33~--0~--00~--7~--77~--8~--88~--88~--8-|
E|--------------------------------------------------------------------------------|

Play until song fades

Please rate thanks!


Lyrics:


Everywhere the sun is shining
All around the world, it's shining
But cold winds blow across your mind

Confusion it's such a terrible shame
Confusion you don't know what you're saying
You've lost your love and you just can't carry on
You feel there's no one there for you to lean on.

Every night you're out there, darling
You're always out there running
And I see that lost look in your eyes

Confusion I don't know what I should do
Confusion I leave it all up to you
You've lost your love and you just can't carry on
You feel there's no one there for you to lean on.

Dark is the road you wander
And as you stand there under
The starry sky, you feel sad inside

Confusion you know it's driving me wild
Confusion it comes as no big surprise
You've lost your love and you just can't carry on
You feel there's no one there for you to lean on.



+++++++++++
| Raileff |
+++++++++++
Suggest correction
comments
print report bad tab
guest
You may want to rate the tab now too:
select rating
Wanna post a correction for this tab? Suggest correction