Oops, an error
Loading. Please wait.

Dont Bring Me Down Bass Tab

version 1
version 1

Whole song

Interactive

7,188 views 51 this week
no commentswrite comment
1 2 3 4 5
please rate
add to favorites
launch autoscroll
font size
0
reset
guitar tuner
Autoscroll
slow
fast
+/-
esc
set tempo
stop
Help us to improve Ultimate-Guitar.com Take our survey!
×
Author
Difficulty
novice
Dont Bring Me Down (Bass Tab) - The Electric Light Orchestra

Tabbed by Darth Lakey

Part 1

G|----------------|----------------|
D|2-0-------------|----------------|
A|----3-0-0-0-0-0-|0-0-0-0-0-0-0-0-|
E|----------------|----------------|

Part 2

G|----------------|----------------|
D|----0-0-0-0-0-0-|0-0-0-0-0-0-0-0-|
A|0-3-------------|----------------|
E|----------------|----------------|

Part 3

G|----------------|----------------|----------------|--------|
D|----------------|----------------|----------------|--------|
A|0-0-0-0-0-0-0-0-|0-0-0-0-0-0-0-0-|3-3-3-3-3-3-3-3-|--------|
E|----------------|----------------|----------------|3-3-3-3-|

Part 4

G|----------------|----------------|
D|----------------|0-0-0-0-0-0-0-0-|
A|----------------|----------------|
E|2-2-2-2-2-2-2-2-|----------------|

Part 5

G|----------------|----------------|
D|0-0-0-0-2-2-2-2-|2-2-2-2-2-2-2-2-|
A|----------------|----------------|
E|----------------|----------------|

Song Layout

Intro             Part 1 x 2          Verse 5          Part 1 x 2 (Hand Clap)
                                                       Part 2
Verse 1           Part 1 x 2                           Part 3           
                  Part 2                               Part 1
                  Part 3                               Part 1 (1st Bar)
                  Part 1                               Part 2 (1st Bar)
                                                       Part 1 (1st Bar)
Verse 2           Part 1 x 2                           Part 2 (1st Bar)
                  Part 2                               Part 1 (1st Bar)
                  Part 3                               Part 2 (1st Bar)
                  Part 1                               Part 1
                                                       Part 3
Chorus            Part 4 x 4                           
                  Part 5              Verse 6          Part 1 x 2                               
                                                       Part 2
Verse 3           Part 1 x 2                           Part 3
                  Part 2                               Part 1 x 3                             
                  Part 3                               Part 2
                  Part 1                               Part 1
                                                       Part 3
Verse 4           Part 1 x 2                           Part 1
                  Part 2
                  Part 3
                  Part 1

Chorus            Part 4 x 4
                  Part 5
Suggest correction new What's this?
You can suggest a correction to this tab. Community and Mods will review your correction and vote to approve or reject it.
comments
We did not receive enough feedback on this tab! Please rate:
print report bad tab
1 2 3 4 5
guest
You may want to rate the tab now too:
select rating
Please do not post tabs as comments. Select "correction" instead!