Oops, an error
Loading. Please wait.

Evil Woman Bass

version 1
version 1

Whole song

Interactive

4,285 views 12 this week
5 commentsread comments
1 2 3 4 5
x 3
add to favorites
launch autoscroll
font size
0
reset
guitar tuner
×
Best way to learn
"Evil Woman"
Autoscroll
slow
fast
+/-
esc
set tempo
stop
-------------------------------------------------------------------------------
			     Evil Woman - ELO
-------------------------------------------------------------------------------

Tabbed By : Superkisseler

Tuning:Standard

It's this the entire song:

G|-------------------------------------------------------------------------|
D|-------------------------------------------------------------------------|
A|-------------------------------------------------------------------------|
E|-5---7-7---5-----5-5---7-7-----------------------------------------------

Besides that there is the part leading into the Chorus:


G|-------------------------------------------------------------------------|
D|-------------------------------------------------------------------------|
A|-------------------------------------------------------------------------|
E|--4-5-6------------------------------------------------------------------|
Suggest correction
Give kudos to tab author, rate the tab!
1 2 3 4 5
comments
print report bad tab
5 comments total. Showing first comments.
-1 reply
duster6pk 41 Jun 09, 2009 06:20 AM

good tab

0 reply
Superkisseler 793 Jun 09, 2009 06:44 AM

thanks man

0 reply
lavaxtris1 220 Jul 08, 2009 02:38 PM

what????? this is totally wrong. its

G------------------------
D-7--7-------------------
A------7--7---5--5-7--7--
E------------------------

then

G------------------------
D------------------5-----
A------------7-----------
E----7-------------------

guest
You may want to rate the tab now too:
select rating
Wanna post a correction for this tab? Suggest correction