Oops, an error
Loading. Please wait.

Evil Woman Bass Tab

version 2
version 2

Whole song

Interactive

7,024 views 6 this week
no commentswrite comment
1 2 3 4 5
excellent!
x 7
add to favorites
launch autoscroll
font size
0
reset
guitar tuner
Autoscroll
slow
fast
+/-
esc
set tempo
stop
Help us to improve Ultimate-Guitar.com Take our survey!
×
Author
Difficulty
novice
I'll finish this up when I have more time. But I can't believe the only other tab on 
song is soo off. It's not even that hard of a song!


 1...2...3...4... 1...2...3...4...
|----------------|----------------|
|7--7----------55|7--7----------55|
|----77--5--577--|----77--5--577--|
|----------------|----------------|

small variation, the 2nd 7 is at the half beat
|----------------|----------------|
|7-7-----------55|7-7-----------55|
|----77--5--577--|----77--5--577--|
|----------------|----------------|

there's also a break in the song that goes
|----------------|----------------|
|--------------5-|7-7-----------55|
|------------7---|----77--5--577--|
|--------8-------|----------------|
Suggest correction
comments
print report bad tab
guest
You may want to rate the tab now too:
select rating
Please do not post tabs as comments. Select "correction" instead!