Oops, an error
Loading. Please wait.

Fire On High Tab

version 2
version 2

Whole song

Interactive

16,392 views 30 this week
4 commentsread comments
1 2 3 4 5
accurate
x 5
add to favorites
launch autoscroll
font size
0
reset
how to read this tab
guitar tuner
Autoscroll
slow
fast
+/-
esc
set tempo
stop
Help us to improve Ultimate-Guitar.com Take our survey!
×
Author
Difficulty
intermediate
Electric Light Orchestra
"Fire On High"
From The 1975 Album "Face The Music"

Tuning: Standard (EADGBe)

|------------------------------------|
| Key:                               |
|                                    |
| b() = bend to note in parentheses  |
| /   = slide up                     |
| \   = slide down                   |
| ~   = vibrato                      |
|------------------------------------|


Synthesizer Thing:

|-5h6h7--|  repeated millions
|--------|  and millions of
|--------|  times
|--------|
|--------|
|--------|


When Guitar Comes In

|---------------|
|---------------|
|---------------|
|--7-7----9-9---|
|--7-7----9-9---|
|--5-5----7-7---|


Guitar Solo Riff Thing (repeated several times throughout)

|------------------------------------------------------------------|
|--14b(16)r14--12-\-10--10b(12)r-8\7----5-7b(9)r-5\3/5~------------|
|--------------------------------------------------------4/6-6~~~--|
|------------------------------------------------------------------|
|------------------------------------------------------------------|
|------------------------------------------------------------------|

Orchestra Thing (after guitar riff)

|---0-2-0---------0-3--2-0--/5~~------/7~~~-------------|
|-3-------------2------------------3----------5\3\2~~---|
|-------------2-----------------------------------------|
|-------------------------------------------------------|
|-------------------------------------------------------|
|-------------------------------------------------------|


Acoustic Riff (Played on 12-string)

|-7-7-7-7-7-7----5-5-5-3-3----3-3-3-3-3-5-5--5-5--7-7---|
|-7-7-7-7-7-7----5-5-5-3-3----3-3-3-3-3-5-5--5-5--7-7---|
|-7-7-7-7-7-7----6-6-6-4-4----4-4-4-4-4-6-6--6-6--7-7---|
|-9-9-9-9-9-9----7-7-7-5-5----5-5-5-5-5-7-7--7-7--9-9---|
|-9-9-9-9-9-9----7-7-7-5-5----5-5-5-5-5-7-7--7-7--9-9---|
|-7-7-7-7-7-7----5-5-5-3-3----3-3-3-3-3-5-5--5-5--7-7---|
Suggest correction
What's this?
You can suggest a correction to this tab. Community and Mods will review your correction and vote to approve or reject it.
comments
print report bad tab
4 comments total. Showing first comments.
0 reply
ZaDunne 152 wrote on July 15 2007, 09:06 pm

not very accurate, hard to interpret, strumming pattern just wrong in general

0 reply
Zeppelin/DC 56 364 wrote on July 30 2007, 11:09 pm

the cool piano/orchestra thing during the intro is:

e----11------8---------------------------------------
B--------10-----10-----------------------------------
G---------------------------------------------------- x alot
D----------------------------------------------------
A----------------------------------------------------
E----------------------------------------------------

0 reply
95e52f16 11 wrote on August 11 2014, 07:36 am

The strumming part is actually:


|-7-7-7-7-7--5-5--3-3----3-3-3--5-5-5--7-7-7--|
|-7-7-7-7-7--5-5--3-3----3-3-3--5-5-5--7-7-7--|
|-9-9-9-9-7--7-6--4-4----4-4-4--6-6-6--7-7-7--|
|-9-9-9-9-9--7-7--5-5----5-5-5--7-7-7--9-9-9--|
|-7-7-7-7-7--5-5--5-5----5-5-5--7-7-7--9-9-9--|
|-7-7-7-7-7--5-5--3-3----3-3-3--5-5-5--9-7-7--|

guest
You may want to rate the tab now too:
select rating
Please do not post tabs as comments. Select "correction" instead!