Oops, an error
Loading. Please wait.

Mr Blue Sky Tab

version 1
version 1

Whole song

Interactive

45,330 views 48 this week
10 commentsread comments
1 2 3 4 5
x 27
add to favorites
launch autoscroll
font size
0
reset
how to read this tab
guitar tuner
Autoscroll
slow
fast
+/-
esc
set tempo
stop
Help us to improve Ultimate-Guitar.com Take our survey!
×
Author
Tabbed by Samuel guthrie  (I am only 13 years of age!)
Artist: E.L.O
Song: Mr blue sky
Album: out of the blue

Any comment's or corrections email me at muppetman91@aol.com

You'll love this!

 Electric guitar
e||------------|--------|-----------|---10-------|----------|
B||------10-11-|10------|-----------|10----13----|----------|
G||---10-------|--------|12/--12-10-|---------10-|12/--12/--|
D||10----------|--------|-----------|------------|----------|
A||------------|--------|-----------|------------|----------|
E||------------|--------|-----------|------------|----------|

e||-----------|----------|-------------|-----------|----------|
B||-----------|----------|-------------|--10----10-|----------|
G||12-10----10|12/----10-|12-10-12-10--|12---12----|10--10 12-|
D||------12---|----12----|-------------|-----------|----------|
A||-----------|----------|-------------|-----------|----------|
E||-----------|----------|-------------|-----------|----------|

e||-----------|--------|-----------|
B||10h11p10---|10------|\10--------|
G||--------12-|--------|-----12-10-| Enjoy!
D||-----------|--------|-----------|
A||-----------|--------|-----------|
E||-----------|--------|-----------|



************************************

| /  Slide up
| h  Hammer-on
| p  Pull-off
| \  Slide down

************************************
Suggest correction
comments
print report bad tab
10 comments total. Showing first comments.
0 reply
bouncymagumbos 10 Dec 07, 2005 01:42 PM

quality, easy to read and play. made my day mate what a funky little solo. cheers

0 reply
RBSC WBrighten 10 Jul 05, 2006 04:05 PM

Great Tab Thanks Helped Me Alot!!!

0 reply
apples&oranges 369 Dec 13, 2006 10:19 PM

perfection!!!

guest
You may want to rate the tab now too:
select rating
Wanna post a correction for this tab? Suggest correction