Oops, an error
Loading. Please wait.

Mr Blue Sky Tab

version 2
version 2

Whole song

Interactive

7,655 views 6 this week
no commentswrite comment
1 2 3 4 5
x 3
add to favorites
launch autoscroll
font size
0
reset
how to read this tab
guitar tuner
Autoscroll
slow
fast
+/-
esc
set tempo
stop
Help us to improve Ultimate-Guitar.com Take our survey!
×
Author
Difficulty
novice
 |1:16                                            |1:20
e|------------------------------------------10----------------------|
B|---------------------------------------10----13-------------------|
G|-------10--11--10h11p10--13b14--12--10----------10----13b14—13b14-|
D|----10------------------------------------------------------------|
A|-10---------------------------------------------------------------|
E|-----------o------------------------------------------------------|

                    |1:24
e|---------------o--------------------------------------------------|
B|------------------------------------------------------------------|
G|-10h12--10----10--13b14----10-------------------10----10----------|
D|-----------12-----------12----12--10h12--10--12----12----10--10---|
A|-----o------------------------------------------------------------|
E|-----o------------------------------------------------------------|

   |1:29
e|------------------------------------------------------------------|
B|----10h11--10--8—8h10--(10)b11r10---------------------------------|
G|-12-------------------------------(11)b12r10----------------------|
D|------------------------------------------------------------------|
A|------------------------------------------------------------------|
E|------------------------------------------------------------------|
Suggest correction
Give kudos to tab author, rate the tab!
1 2 3 4 5
comments
print report bad tab
guest
You may want to rate the tab now too:
select rating
Wanna post a correction for this tab? Suggest correction