Oops, an error
Loading. Please wait.

Mr Blue Sky Tab

version 1
version 1

Whole song

Interactive

38,844 views 18 this week
2 commentsread comments
1 2 3 4 5
accurate
x 6
add to favorites
launch autoscroll
font size
0
reset
how to read this tab
guitar tuner
Tab Pro tools
  • play this tab
  • loop segment
  • change instrument
  • show fretboard
  • metronome
×
Best way to learn
"Mr Blue Sky"
Autoscroll
slow
fast
+/-
esc
set tempo
stop
 F
Sun is shinin' in the sky,
               Em7  A   Dm
There ain't a cloud in sight
               G
It's stopped rainin'
      Em          A
Everybody's in a play
               Bb
And don't you know
                      F        Bb
It's a beautiful new day, hey hey


 F
Runnin' down the avenue,
                   Em7  A   Dm
See how the sun shines brightly
                    G
In the city on the streets
               Bb
Where once was pity,
                      F        Bb
Mr. Blue Sky is living here today.


CHORUS
Dm        F                  Bb
Mr. Blue Sky, please tell us why,
            F
You had to hide away
    G      F               E          Bb
For so long       where did we go wrong.

Solo (1:16)

e|---------------------------------------------------------------------|
B|--------10h11-10b----10-------10-15-13-----10b-10b----------------10-|
G|--10h12-----------------12-10-----------10---------12-10-----9h10----|
D|---------------------------------------------------------------------|
A|---------------------------------------------------------------------|
E|---------------------------------------------------------------------|


e|----------------------------------------------------------13-12-10-8-|
B|---------------------------------------------------------------------|
G|--9h10--12-10-12-10-12-14-12-14-10---10-12-14-15-14-12-14------------|
D|---------------------------------------------------------------------|
A|---------------------------------------------------------------------|
E|---------------------------------------------------------------------|


Hey there Mr. Blue
We're so pleased to be with you
Look around see what you do,
Everybody smiles at you.

Hey you with the pretty face,
Welcome to the human race
A celebration Mr. Blue Sky's
Up there waitin' and today
Is the day we've waited for

CHORUS

 F          
Mr. Blue you did it right,
               Em7   A    Dm
But soon comes Mis - ter Night,
          G
Creepin' over, now his
 Em                A
Hand is on your shoulder,
       Bb                     Db
Never mind I'll remember you this 
        Eb              Dm
I'll remember you this way.
comments
print report bad tab
2 comments total.
0 reply
colourdonut wrote on August 22 2008, 12:39 pm

chords are perfect, but the solo is not

0 reply
F3V3RLAST wrote on August 10 2010, 10:21 am

true that. less picking and more bending. especially the last walk down you wrote. its actually B|-10b-------
G|-----12-10-
All with as much vibrato as you can muster on those long notes
and the begginning is actually better barred this way
B|-----10-h11-p10- and then the last thing is that
G|---10----------- when you see those notes going past
D|-10------------- the 12th fret its actually a large
12th fret bend to those notes
on the G. hope this helps other versions have it down pretty well

I want to post or [tab]
guest
You may want to rate the tab now too:
select rating
Please do not post tabs as comments. Select "correction" instead!