Oops, an error
Loading. Please wait.

Mr Blue Sky Bass Tab

version 2
version 2

Whole song

Interactive

10,775 views 3 this week
4 commentsread comments
1 2 3 4 5
accurate
x 6
add to favorites
launch autoscroll
font size
0
reset
guitar tuner
Tab Pro tools
  • play this tab
  • loop segment
  • change instrument
  • show fretboard
  • metronome
×
Best way to learn
"Mr Blue Sky"
Autoscroll
slow
fast
+/-
esc
set tempo
stop
Contributor
Difficulty
intermediate
ELO - Mr Blue Sky

Tabbed by CONTRABASS




INTRO

G|----------------|----------------|----------------|-----------------|
D|----------------|----------------|----------------|-----------------|
A|--8---8---8---8-|--8---8---8---8-|--8---8---8---8-|--8---8---8---8--|
E|----------------|----------------|----------------|-----------------|



VERSE

G|----------------|----------------|----------------|-----------------|
D|----------------|----------------|----------------|-----------------|
A|--8---8---8---8-|--8---8---8---8-|--8---8---8---8-|--7---7----------|
E|----------------|----------------|----------------|----------5---5--|

G|----------------|----------------|----------------|-----------------|
D|----------------|--5---5---5---5-|----------------|--7---7---7---7--|
A|--5---5---5---5-|----------------|--7---7---7---7-|-----------------|
E|----------------|----------------|----------------|-----------------|

G|----------------|----------------|----------------|-----------------|
D|----------------|----------------|----------------|-----------------|
A|----------------|----------------|--8---8---8---8-|-----------------|
E|--6---6---6---6-|--8---8---8---8-|----------------|--8---8---8---8--|



CHORUS

G|--7-------------|--5---5---------|----------------|-----------------|
D|----------------|----------------|--8-------------|--7---7----------|
A|----------------|----------------|----------------|-----------------|
E|----------------|----------------|----------------|-----------------|


G|----------------|----------------|----------------|-----------------|
D|--5-------------|----------------|----------5---8-|-----------------|
A|----------------|--8---8---------|--6-------------|----------5---8--|
E|----------------|----------------|----------------|--6--------------|              

                

BRIDGE TO VERSE

G|----------------|----------------|
D|----------------|--10--10--10--10|
A|----------------|----------------|
E|--8---8---8---8-|----------------|



RIFF A

G|----------------|----------------|-------------10-|--8-------7------|
D|-------7--------|------------7---|--8-------------|------8-------8--|
A|---6-8----5-7-8-|---10-8-7-------|----------8-----|-------10-------8|
E|----------------|----------8-----|----------------|-----------------|



LAST VERSE

G|----------------|----------------|----------------|-----------------|
D|----------------|----------------|----------------|-----------------|
A|--8---8---8---8-|--8---8---8---8-|--8---8---8---8-|--7---7----------|
E|----------------|----------------|----------------|----------5---5--|

G|----------------|----------------|----------------|-----------------|
D|----------------|--5---5---5---5-|----------------|--7---7---7---7--|
A|--5---5---5---5-|----------------|--7---7---7---7-|-----------------|
E|----------------|----------------|----------------|-----------------|

G|----------------|----------------|----------------|-----------------|
D|----------------|----------------|----------------|-----------------|
A|----------------|----------------|----------------|--6---6---6---6--|
E|--6---6---6---6-|--8---8---8---8-|--9---9---9---9-|-----------------|



BASS SOLO

G|--7---5---------|--5-------------|----------------|-----------------|
D|----------7-----|------7---------|----------------|------0---2---3--|
A|--------------8-|----------8---5-|------0---1---2-|--3--------------|
E|----------------|----------------|--3-------------|-----------------|

G|--0---2---3---0-|--5-------------|----------------|-----------------|
D|----------------|------7---------|--8---5---------|-----------------|
A|----------------|----------8---5-|----------6-----|------8---5------|
E|----------------|----------------|--------------8-|--6-----------6--|

G|--7---5---------|--5-------------|----------------|-----------------|
D|----------7-----|------7---------|----------------|------0---2---3--|
A|--------------8-|----------8---5-|------0---1---2-|--3--------------|
E|----------------|----------------|--3-------------|-----------------|

G|--0---0---2---3-|--5-------------|----------------|-----------------|
D|----------------|------7---------|----------------|-----------------|
A|----------------|----------8---5-|--6-------------|-----------------|
E|----------------|----------------|----------------|--6--------------|

G|----------------|----------------|----------------|-----------------|
D|----------------|----------------|----------------|-----------------|
A|--8-------------|----------------|----------------|-----------------|
E|----------------|----------------|----------------|-----------------|



OUTRO

G||----------------|----------------|----------------|-----------------||
D||*---------------|----------------|----------------|----------------*||
A||*4-4-4-4-4-4-4-4|-4-4-4-4-4-4-4-4|-4-4-4-4-4-4-4-4|-4-4-4-4-4-4-4-4*||  x3
E||----------------|----------------|----------------|-----------------||

G|----------------|----------------|----------------|-----------------|
D|----------------|----------------|----------------|-----------------|
A|-4-4-4-4-4-4-4-4|-3-3-3-3-3-3-3-3|-2-2-2-2-2-2-2-2|-1---------------|
E|----------------|----------------|----------------|-----------------|




Play in the following order:-


INTRO

VERSE x2

CHORUS x2

BRIDGE TO VERSE



VERSE x2

CHORUS x2

RIFF A

BRIDGE TO VERSE



VERSE

LAST VERSE

CHORUS 

RIFF A

BASS SOLO

OUTRO


comments
print report bad tab
4 comments total. Showing first comments.
0 reply
Bacterio wrote on April 3 2009, 01:14 pm

think it starts with F not C man

+1 reply
contrabass wrote on April 28 2009, 09:36 am

Yes, it does, as does my Tab. 8th fret, A string IS an F!

0 reply
5thBeatle wrote on September 26 2015, 10:45 pm

lol... Great tab! the other ones are an octave too low.
i was gonna tab it right then i found this one. thumbs up

i think some are afraid to play up the neck

I want to post or [tab]
guest
You may want to rate the tab now too:
select rating
Please do not post tabs as comments. Select "correction" instead!