Oops, an error
Loading. Please wait.

Need Her Love Bass Tab

version 1
version 1

Whole song

Interactive

398 views 1 this week
no commentswrite comment
1 2 3 4 5
excellent!
x 1
add to favorites
launch autoscroll
font size
0
reset
guitar tuner
Tab Pro tools
  • play this tab
  • loop segment
  • change instrument
  • show fretboard
  • metronome
Autoscroll
slow
fast
+/-
esc
set tempo
stop
Contributor
+++++++++++++++++++++++++++++++++++++++++++
| Electric Light Orchestra- Need Her Love |
+++++++++++++++++++++++++++++++++++++++++++


"She makes me smile, she tries to sing..."


Tuning: EADG


Intro
1.
G|-12-10-9-8h9~----9-7-5-|
D|-----------------------|
A|-----------------------|
E|-----------------------|

2.
G|-------------------------------------------------------------------------|
D|-------------------------7~----------------------7~----------------------|
A|-3~----5~----7~----8~----------7~----5~----7~----------7~----------------|
E|-------------------------------------------------------------3~----5~----|

3.
G|----------------------------|
D|----------------------------|
A|-5~--7~--8~--10~--3~--------|
E|----------------------------|

Verse
"She gives me love...."
4.
G|--------------------------------------------------------------|
D|-------------------------------7~---7-------------------------|
A|-3~---3-5-5~----7~---7-8-8~-----------7-7~----5~---5-7-7~-----|
E|--------------------------------------------------------------|

Pre-Chorus
"And if she goes away..."
5.
G|-------------------------------------------|
D|-7~---7------------------------------------|
A|--------7-7~-----------3-3~----8~----8~----|
E|----------------3~---3---------------------|

Chorus
"I need her love..."
6.
G|-------------------------------------------------------------|
D|------7h9-7~------------5h7-5~-------------------------------|
A|-7~------------5h7-5~------------3~----3-3~----3~----3-3~----|
E|-------------------------------------------------------------|

Verse
"She came in from the west..."
7.
G|--------------------------------------------------------------|
D|-------------------------------7~---7-------------------------|
A|-3~---3-5-5~----7~---7-8-8~-----------7-7~----5~---5-7-7~-----|
E|--------------------------------------------------------------|

Pre-Chorus
"She made me feel so good..."
8.
G|-------------------------------------------|
D|-7~---7------------------------------------|
A|--------7-7~-----------3-3~----8~----8~----|
E|----------------3~---3---------------------|

Chorus
"I need her love..."
9.
G|-------------------------------------------------------------|
D|------7h9-7~------------5h7-5~-------------------------------|
A|-7~------------5h7-5~------------3~----3-3~----3~----3~--2~--|
E|-------------------------------------------------------------|

Bridge
"Just when I was thinking of her..."
10.
G|-------------------------------------------------------------------|
D|-7-7-7-7-7-7-7-7---------------------------------3-3-3-3-----------|
A|-----------------7-7-7-7-7-7-7-7---------3-3-3-3-------------------|
E|---------------------------------3-3-3-3-----------------1~--------|

Chorus
"I need her love..."
11.
G|-------------------------------------------------------------|
D|------7h9-7~------------5h7-5~-------------------------------|
A|-7~------------5h7-5~------------3~----3-3~----3~----3-3~----|
E|-------------------------------------------------------------|

Bridge
12.
G|--------------------------------------------------------------|
D|-------------------------------7~---7-------------------------|
A|-3~---3-5-5~----7~---7-8-8~-----------7-7~----5~---5-7-7~-----|
E|--------------------------------------------------------------|

Pre-Chorus
"And if she goes away..."
13.
G|-------------------------------------------|
D|-7~---7------------------------------------|
A|--------7-7~-----------3-3~----8~----8~----|
E|----------------3~---3---------------------|

Chorus
"I need her love..."
14.
G|-------------------------------------------------------------|
D|------7h9-7~------------5h7-5~-------------------------------|
A|-7~------------5h7-5~------------3~----3-3~----3~----3-3~----|
E|-------------------------------------------------------------|

Verse
"The boats that sail..."
15.
G|--------------------------------------------------------------|
D|-------------------------------7~---7-------------------------|
A|-3~---3-5-5~----7~---7-8-8~-----------7-7~----5~---5-7-7~-----|
E|--------------------------------------------------------------|

Pre-Chorus
"I couldnt stand to see her crying..."
16.
G|-------------------------------------------|
D|-7~---7------------------------------------|
A|--------7-7~-----------3-3~----8~----8~----|
E|----------------3~---3---------------------|

Chorus
"I need her love..."
17.
G|-------------------------------------------------------------|
D|------7h9-7~------------5h7-5~-------------------------------|
A|-7~------------5h7-5~------------3~----3-3~----3~----3-3~----|
E|-------------------------------------------------------------|

Verse
"She tells me everything..."
18.
G|--------------------------------------------------------------|
D|-------------------------------7~---7-------------------------|
A|-3~---3-5-5~----7~---7-8-8~-----------7-7~----5~---5-7-7~-----|
E|--------------------------------------------------------------|

Pre-Chorus
"She makes it like a dream..."
19.
G|-------------------------------------------|
D|-7~---7------------------------------------|
A|--------7-7~-----------3-3~----8~----8~----|
E|----------------3~---3---------------------|

Chorus
"I need her love..."
20.
G|---------------------------------------------------|
D|------7h9-7~------------5h7-5~---------------------|
A|-7~------------5h7-5~------------3~----3~--5~--6~--|
E|---------------------------------------------------|

"I need her love..."
21.
G|----------------------7~----9~----10~------12~-------------------|
D|------7h9-7~-----------------------------------------------------|
A|-7~------------5h7-55----77----88-----1010-----3~----3~--5~--6~--|
E|-----------------------------------------------------------------|


Please rate thanks!


Lyrics:

She gives me love that I could never hope to have,
She tells me that she needs me,she tells me that she's glad,
And if she goes away, I'm like someone who's left out in the rain,
I need, I need her, I need her love.

She came in from the west, a summer breeze I couldn't rest,
I had to take a fast train, to be there by her side,
She made me feel so good, she made it like it should be all the time

Just when I was thinkin' of her, she came along and made me
want her. 

If she goes away, I'm like someone who's left out in the rain,

The boats that sail, the planes that fly,she is with me.
I wonder if she wonders, if this is all for real,
I couldn't stand to see her cry because of me, that would be sad.

She tells me everything, she makes me smile, she tries to sing,
But never shares her suffering, if things are going wrong,
She makes it like a dream, if things are as they seem the
world is good. 



+++++++++++
| Raileff |
+++++++++++
comments
We did not receive enough feedback on this tab! Please rate:
print report bad tab
1 2 3 4 5
I want to post or [tab]
guest
You may want to rate the tab now too:
select rating
Please do not post tabs as comments. Select "correction" instead!