Oops, an error
Loading. Please wait.

One Summer Dream Bass Tab

646 views 15 this week
no commentswrite comment
1 2 3 4 5
please rate
add to favorites
launch autoscroll
font size
0
reset
guitar tuner
Autoscroll
slow
fast
+/-
esc
set tempo
stop
Help us to improve Ultimate-Guitar.com Take our survey!
×
Author
++++++++++++++++++++++++++++++++++++++++++++++
| Electric Light Orchestra- One Summer Dream |
++++++++++++++++++++++++++++++++++++++++++++++


"Warm summer breeze blows endlessly..."


Tuning: EADG


Verse
"Deep waters flow out to the sea..."
1.
G|--------------------------------------------------------------------------------------------|
D|-----------2~--22~--2-----------3~--5~--6-7~---7~---7~---7~--7---------7~--77~--73~--33~--3-|
A|-3~--33~--3----------3~--33~--3---------------7----7----7-----7~--77~-7---------------------|
E|--------------------------------------------------------------------------------------------|

"Blue mountains high..."
2.
G|--------------------------------------------------------------------------------------------|
D|-----------2~--22~--2-----------3~--5~--6-7~---7~---7~---7~--7---------7~--77~--73~--33~--3-|
A|-3~--33~--3----------3~--33~--3---------------7----7----7-----7~--77~-7---------------------|
E|--------------------------------------------------------------------------------------------|

3.
G|---------|
D|---------|
A|-3~--2~--|
E|---------|

4.
G|----------------------------------------------|
D|--------------------2~--22~--22~--2-2-2-------|
A|-0~--00~--00~--0-0-0-------------------0~--00~|
E|----------------------------------------------|
|

----------------------------------------------------|
------------2~--22~--22~--2-2-2---------------------|
--00~--0-0-0-------------------0~--00~--00~--00~--0-|
----------------------------------------------------|


"Warm summer breeze..."
5.
G|--------------------------------------------------------------------------------------------|
D|-----------2~--22~--2-----------3~--5~--6-7~---7~---7~---7~--7---------7~--77~--73~--33~--3-|
A|-3~--33~--3----------3~--33~--3---------------7----7----7-----7~--77~-7---------------------|
E|--------------------------------------------------------------------------------------------|

"Bird on wing goes floating by..."
6.
G|--------------------------------------------------------------------------------------------|
D|-----------2~--22~--2-----------3~--5~--6-7~---7~---7~---7~--7---------7~--77~--73~--33~--3-|
A|-3~--33~--3----------3~--33~--3---------------7----7----7-----7~--77~-7---------------------|
E|--------------------------------------------------------------------------------------------|

"One summer dream..."
7.
G|--------------------------------------------------|
D|-----------2~--22~--2----------3~--33~--3---------|
A|-0~--00~--0----------0~--00~--0-----------3~--2~--|
E|--------------------------------------------------|

8.
G|------------------------------------------------------------------------------|
D|--------------------2~--22~--22~--2-2-2-------------------2~--22~--22~--2-2-2-|
A|-0~--00~--00~--0-0-0-------------------0~--00~--00~--0-0-0--------------------|
E|------------------------------------------------------------------------------|

"Deep waters flow out to the sea..."
9.
G|------------------------------------------------------------------------------|
D|--------------------2~--22~--22~--2-2-2-------------------2~--22~--22~--2-2-2-|
A|-0~--00~--00~--0-0-0-------------------0~--00~--00~--0-0-0--------------------|
E|------------------------------------------------------------------------------|


Play until song fades...

Please rate thanks!


Lyrics:

Deep waters flow, out to the sea,
They never needed you or me.
One Summer Dream, One Summer dream.

Blue Mountains high and valley low,
I don't know which way I should go,
One Summer Dream, One Summer dream.

Warm summer breeze blows endlessly,
Touching the hearts of those who feel,
One Summer Dream, One Summer dream.

Bird on wing goes floating by,
But there's a teardrop in his eye,
One Summer Dream, One Summer dream.



+++++++++++
| Raileff |
+++++++++++
Suggest correction
Give kudos to tab author, rate the tab!
1 2 3 4 5
comments
print report bad tab
guest
You may want to rate the tab now too:
select rating
Please do not post tabs as comments. Select "correction" instead!