Oops, an error
Loading. Please wait.

Rain Is Falling Bass Tab

527 views 3 this week
1 commentread comment
1 2 3 4 5
please rate
add to favorites
launch autoscroll
font size
0
reset
guitar tuner
Autoscroll
slow
fast
+/-
esc
set tempo
stop
Help us to improve Ultimate-Guitar.com Take our survey!
×
Author
+++++++++++++++++++++++++++++++++++++++++++++
| Electric Light Orchestra- Rain Is Falling |
+++++++++++++++++++++++++++++++++++++++++++++


"Down on the corner where the sun had shone..."


Tuning: EADG


Verse
"Early in the morning..."
1.
G|-------------------------------------------------------------------------|
D|-----------------------------------------------------------------4~--2~--|
A|-0~----------5~----7~----0~--------0~----------5~----7~----0~------------|
E|-------2~--------------------------------2~------------------------------|

"A noise in the city..."
2.
G|-------------------------------------------------------|
D|-------------------------------------------------------|
A|-0~----4~----5~----5~----0~----4~----5~----7~----555-5-|
E|-------------------------------------------------------|

"Looking from this window..."
3.
G|-----------------------------------------------------------------------------|
D|---------------------------------------------------------------------4~--2~--|
A|-0~---0-------5~---5-7~----0~--------0~---0-------5~---5-7~----0~------------|
E|--------2~----------------------------------2~-------------------------------|

"I can see it very clearly..."
4.
G|-----------------------------------------------------------|
D|-----------------------------------------------------------|
A|-0~---0-4~----5~---5-5~----0~---0-4~----5~---5-7~----555-5-|
E|-----------------------------------------------------------|

Chorus
"Ooh, the rain is falling..."
5.
G|----------------------------------------------------------------------------------------|
D|--------------------------------------------------------7~--6~--4~----4~----------------|
A|-0~----0~----5~----5~----0~----0~----5~----5~----0~---0---------------------5~----5~----|
E|----------------------------------------------------------------------------------------|

Outro
6.
G|-------------------|
D|-------------------|
A|-0~----------------|
E|-------------------|

Verse
"With their brand new time transporter..."
7.
G|-----------------------------------------------------------------------------|
D|---------------------------------------------------------------------4~--2~--|
A|-0~---0-------5~---5-7~----0~--------0~---0-------5~---5-7~----0~------------|
E|--------2~----------------------------------2~-------------------------------|

"Down on the corner..."
8.
G|-----------------------------------------------------------|
D|-----------------------------------------------------------|
A|-0~---0-4~----5~---5-5~----0~---0-4~----5~---5-7~----555-5-|
E|-----------------------------------------------------------|

Chorus
"Ooh, the rain is falling..."
9.
G|----------------------------------------------------------------------------------------|
D|--------------------------------------------------------7~--6~--4~----4~----------------|
A|-0~----0~----5~----5~----0~----0~----5~----5~----0~---0---------------------5~----5~----|
E|----------------------------------------------------------------------------------------|

10.
G|-------------------------|
D|-------------------------|
A|-0~----------------------|
E|-------3~----2~----1~----|

"Ooh, the rain is falling..."
11.
G|----------------------------------------------------------------------------------------|
D|--------------------------------------------------------7~--6~--4~----4~----------------|
A|-0~----0~----5~----5~----0~----0~----5~----5~----0~---0---------------------5~----5~----|
E|----------------------------------------------------------------------------------------|

Outro
12.
G|-----------------------------------------------------------------------|
D|-----------------------------------------------------------------------|
A|-0~----0~----0~----0~----0~--------------------------0~----------------|
E|-------------------------------3~----2~----1~--------------------------|


Please rate thanks!!



Lyrics:

Early in the morning 
The sun was up and the sky was very blue 
Without a warning 
As I looked out, my thoughts returned to you. 
A noise in the city made the children run 
And hide themselves away 
And thunder boomed and lightning filled the sky.

Looking from this window 
A thousand rivers running past my door 
Standing on an island 
Looking for someone upon the shore 
I can see it very clearly, nothing's really changed 
Then lightning strikes across an empty sky.

Ooohh, the rain is falling 
Will it wash away those lonely tears?

With their brand new time transporter 
They'll think maybe I fought to get away 
But with all their great inventions 
And all their good intentions, here I stay 
Down on the corner where the sun had shone 
The people gathered round 
Then scattered as the raindrops hit the ground.

Ooohh, the rain keeps on falling



+++++++++++
| Raileff |
+++++++++++
Suggest correction
What's this?
You can suggest a correction to this tab. Community and Mods will review your correction and vote to approve or reject it.
comments
We did not receive enough feedback on this tab! Please rate:
print report bad tab
1 2 3 4 5
1 comment total.
0 reply
John_Squire 19 wrote on January 9 2016, 11:29 am

Awesome tab! Sounds great!

guest
You may want to rate the tab now too:
select rating
Please do not post tabs as comments. Select "correction" instead!