Oops, an error
Loading. Please wait.

Rock And Roll Is King Bass Tab

version 1
version 1

Whole song

4,289 views 15 this week
no commentswrite comment
1 2 3 4 5
please rate
add to favorites
launch autoscroll
font size
0
reset
guitar tuner
Autoscroll
slow
fast
+/-
esc
set tempo
stop
Help us to improve Ultimate-Guitar.com Take our survey!
×
Contributor
Come in after two bars of drums and then two bars guitar:

G|------------------------------------------------|
D|-------2--4--------2--4--------2--4--------2--4-|
A|-0--4--------0--4--------0--4--------0--4-------|
E|------------------------------------------------|


G|------------------------------------------------|
D|-------2--4--------2--4--------2--4--------2--4-|
A|-0--4--------0--4--------0--4--------0--4-------|
E|------------------------------------------------|

G|------------------------------------------------|
D|-------2--4--------2----------------------------|
A|-0--4--------0--4-----4--------2--4--2--0-------|
E|-------------------------0--4--------------4--2-|

G|-------2--4--------2--4-------------------------|
D|-0--4--------0--4--------------2--4--------2--4-|
A|-------------------------0--4--------0--4-------|
E|------------------------------------------------|

G|------------------------------------------------|
D|-------2--4--2--0--------------2--4--------2--4-|
A|-0--4--------------4--2--0--4--------0--4-------|
E|------------------------------------------------|


G|------------------------------------------------|
D|-------2--4--------2--4--------2--4--------2--4-|
A|-0--4--------0--4--------0--4--------0--4-------|
E|------------------------------------------------|

G|------------------------------------------------|
D|-------2--4--------2----------------------------|
A|-0--4--------0--4-----4--------2--4--2--0-------|
E|-------------------------0--4--------------4--2-|

G|-------2--4--------2--4-------------------------|
D|-0--4--------0--4--------------2--4--------2--4-|
A|-------------------------0--4--------0--4-------|
E|------------------------------------------------|

G|------------------------------------------------------------------------|
A|-------2--4--2--0--------------2--4--------------0--0--0--0-------------|
D|-0--4--------------4--2--0--4--------0--0--2--4--------------0--0--0--0-|
E|------------------------------------------------------------------------|

G|----------------------------------------------------------------|-------|
A|--2--2--2--2--------------0--0--0--0--------------------------2-|-PAUSE-| 
D|--------------0--0--0--0--------------0--0--0--0--2--2--2--2----|-------|
E|----------------------------------------------------------------|-------|

G|------------------------------------------------|
D|-------2--4--------2--4--------2--4--------2--4-|
A|-0--4--------0--4--------0--4--------0--4-------|
E|------------------------------------------------|

G|------------------------------------------------|
D|-------2--4--------2----------------------------|
A|-0--4--------0--4-----4--------2--4--2--0-------|
E|-------------------------0--4--------------4--2-|

G|-------2--4--------2--4-------------------------|
D|-0--4--------0--4--------------2--4--------2--4-|
A|-------------------------0--4--------0--4-------|
E|------------------------------------------------|

G|------------------------------------------------|
D|-------2--4--2--0--------------2--4--------2--4-|
A|-0--4--------------4--2--0--4--------0--4-------|
E|------------------------------------------------|

(in this instrumental section you can improvise!)

G|------------------------------------------------|
D|-------2--4--------2--4--------2--4--------2--4-|
A|-0--4--------0--4--------0--4--------0--4-------|
E|------------------------------------------------|

G|-------2--4--------2--4-------------------------|
D|-0--4--------0--4--------------2--4--------2--4-|
A|-------------------------0--4--------0--4-------|
E|------------------------------------------------|

G|-------2--4--------2--4-------------------------|
D|-0--4--------0--4--------------2--4--------2--4-|
A|-------------------------0--4--------0--4-------|
E|------------------------------------------------|

G|------------------------------------------------------------------------|
A|-------2--4--2--0--------------2--4--------------0--0--0--0-------------|
D|-0--4--------------4--2--0--4--------0--0--2--4--------------0--0--0--0-|
E|------------------------------------------------------------------------|

G|----------------------------------------------------------------|-------|
A|--2--2--2--2--------------0--0--0--0--------------------------2-|-PAUSE-| 
D|--------------0--0--0--0--------------0--0--0--0--2--2--2--2----|-------|
E|----------------------------------------------------------------|-------|


G|------------------------------------------------|
D|-------2--4--------2--4--------2--4--------2--4-|
A|-0--4--------0--4--------0--4--------0--4-------|
E|------------------------------------------------|

G|------------------------------------------------|
D|-------2--4--------2----------------------------|
A|-0--4--------0--4-----4--------2--4--2--0-------|
E|-------------------------0--4--------------4--2-|

G|-------2--4--------2--4--------------------------------------------------|
D|-0--4--------0--4--------------2--4-------2--4--------2--4--2--0---------|
A|-------------------------0--4-------0--4--------0--4-------------4--2--0-|
E|-------------------------------------------------------------------------|

G|-------------------------|
D|--------2--4--------2--4-|
A|--0--4--------0--4-------|
E|-------------------------|

G|---------------------------|-------|---------------------------|
D|-------2--4--2--0----------|-PAUSE-|-------2--4--2--0----------|
A|-0--4--------------4--2--0-|-------|-0--4--------------4--2--0-|
E|---------------------------|-------|---------------------------|

G|---------------------------|-------|---------------------------|
D|-------2--4--2--0----------|-PAUSE-|-------2--4--2--0----------|
A|-0--4--------------4--2--0-|-------|-0--4--------------4--2--0-|
E|---------------------------|-------|---------------------------|

G|------------------------|
D|------------------------|
A|-0--0--0--0--------2--0-|
E|-------------0--3-------|





comments
We did not receive enough feedback on this tab! Please rate:
print report bad tab
1 2 3 4 5
I want to post or [tab]
guest
You may want to rate the tab now too:
select rating
Please do not post tabs as comments. Select "correction" instead!