Oops, an error
Loading. Please wait.

Telephone Line Bass Tab

version 1
version 1

Whole song

Interactive

3,719 views 9 this week
no commentswrite comment
1 2 3 4 5
excellent!
x 5
add to favorites
launch autoscroll
font size
0
reset
guitar tuner
Tab Pro tools
  • play this tab
  • loop segment
  • change instrument
  • show fretboard
  • metronome
×
Best way to learn
"Telephone Line"
Autoscroll
slow
fast
+/-
esc
set tempo
stop
Contributor
++++++++++++++++++++++++++++++++++++++++++++
| Electric Light Orchestra- Telephone Line |
++++++++++++++++++++++++++++++++++++++++++++


"Don't you realize the things we did, were all for real, not a dream?..."


Tuning: EADG



Intro
1.
G|---------------------|
D|-7~---5~---3~---5~---|
A|---------------------|
E|---------------------|

Verse
"Hello, how are you?"
2.
G|--------------------------------------------------------------------------|
D|-----------------------------2~-------------0~---2~-------------0~---0~---|
A|-0~---0~---0~---0~--1~--2~--------2~---4~-------------0~---0~-------------|
E|--------------------------------------------------------------------------|

"Hey how you feeling?"
3.
G|-------------------------------------------------------------------------------|
D|--------------------------------------------------432~--------------0~---02~---|
A|-0~---00~---0~---00~---0~---00~---0~---01~---2~----------2~---4~---4-----------|
E|-------------------------------------------------------------------------------|

4.
G|------------------------------------------------|
D|------------0~---0~-------------0~---0~---22222-|
A|-0~---0~--------------0~---0~-------------------|
E|------------------------------------------------|

Pre-Chorus
"Doowop..."
5.
G|-------------------------------------------------|
D|-------4~-4~-------------------4~-4~-------------|
A|-0~-0~-------5~-5~-7~-7~-0~-0~-------5~-5~-7~-7~-|
E|-------------------------------------------------|

"Im looking to the sky..."
6.
G|-------------------------------------------------|
D|-------4~-4~-------------------4~-4~-------------|
A|-0~-0~-------5~-5~-7~-7~-0~-0~-------5~-5~-7~-7~-|
E|-------------------------------------------------|

Chorus
"Oh, telephone line..."
7.
G|-----------------------------------------------------------------|
D|-7-7-7---7-7-6-6-4-4-4---4-4-2-2-0-0-0---0-0-0-0-2-2-2-2-3-3-3-3-|
A|-------7---------------4---------------0-------------------------|
E|-----------------------------------------------------------------|

"Oh, telephone line..."
8.
G|-----------------------------------------------------------------------|
D|-7~-----7~--6~--4~-----4~--2~--0~-----0~---2-2-2-2-3-3-3-3-------------|
A|------7--------------4--------------0----------------------------------|
E|-----------------------------------------------------------3-5~--------|

Verse
"Ok, so no one's answering..."
10.
G|-------------------------------------------------------------------------------|
D|----------------------------------------------------2~--------------0~---02~---|
A|-0~---00~---0~---00~---0~---00~---0~---01~---2~---2------2~---4~---4-----------|
E|-------------------------------------------------------------------------------|

11.
G|------------------------------------------------|
D|------------0~---0~-------------0~---0~---22222-|
A|-0~---0~--------------0~---0~-------------------|
E|------------------------------------------------|

Pre-Chorus
"Doowop..."
12.
G|-------------------------------------------------|
D|-------4~-4~-------------------4~-4~-------------|
A|-0~-0~-------5~-5~-7~-7~-0~-0~-------5~-5~-7~-7~-|
E|-------------------------------------------------|

"Im looking to the sky..."
13.
G|-------------------------------------------------|
D|-------4~-4~-------------------------------------|
A|-0~-0~-------5~-5~-7~-7~-0~-0~-------5~-5~-7~-7~-|
E|-------------------------------2~-2~-------------|

Chorus
"Oh, telephone line..."
14.
G|-----------------------------------------------------------|
D|-7~-----7~--6~--4~-----4~--2~--0~-----0~---2-2-2-2-3-3-3-3-|
A|------7--------------4--------------0----------------------|
E|-----------------------------------------------------------|

Play until song fades

Please rate thanks!


Lyrics:


Hello. How are you?
Have you been alright, through all those lonely lonely lonely lonely lonely nights
That's what I'd say. I'd tell you everything
If you'd pick up that telephone yeah 

Hey. How you feelin?
Are you still the same?
Don't you realize the things we did, we did, were all for real, not a dream?
I just can't believe
They've all faded out of view yeah 

Doowop dooby doo doowop doowah doolang
Blue days black nights doowah doolang

I look into the sky, the love you need ain't gonna see you through
And I wonder why the little things you planned ain't coming true

Oh oh Telephone Line, give me some time, I'm living in twilight

Ok. So no one's answering
Well can't you just let it ring a little longer longer longer 
I'll just sit tight through shadows of the night
And let it ring for evermore 



+++++++++++
| Raileff |
+++++++++++
comments
print report bad tab
I want to post or [tab]
guest
You may want to rate the tab now too:
select rating
Please do not post tabs as comments. Select "correction" instead!