Oops, an error
Loading. Please wait.

Twilight Bass Tab

1,332 views 12 this week
no commentswrite comment
1 2 3 4 5
3 more votes to show rating
add to favorites
launch autoscroll
font size
0
reset
guitar tuner
Autoscroll
slow
fast
+/-
esc
set tempo
stop
Help us to improve Ultimate-Guitar.com Take our survey!
×
Author
++++++++++++++++++++++++++++++++++++++
| Electric Light Orchestra- Twilight |
++++++++++++++++++++++++++++++++++++++


"Its either real or its a dream..."

Tuning: EADG


Intro
1.
G|-------------------------------------|
D|-------------------------------------|
A|-33333333-33333333-33333333-33333333-|
E|-------------------------------------|

Verse
"The visions dancing in my mind..."
2.
G|-------------------------------------------------------------------------|
D|-------------------------------------------------------------------------|
A|-33333333-33333333-33333333-33333333-33333333-33333333-33333333-33333333-|
E|-------------------------------------------------------------------------|

"Am I awake or do I dream?"
3.
G|-------------------------------------------------------------------------|
D|-----------------------------------------------------------------7744----|
A|-33333333-33333333-33333333-33333333-33333333-33333333-33333333-3----666-|
E|-------------------------------------------------------------------------|

Pre-Chorus
"With your head held high..."
4.
G|-------------------------------------------------------|
D|-33333333-55555555----------33333333-55553333-22220000-|
A|-------------------33333333----------------------------|
E|-------------------------------------------------------|

Chorus
"Twilight..."
5.
G|-------------------------------------------------------------------------|
D|-------------------33333333-33333333----------33333333-55555555-99999999-|
A|-33333333-33333333-------------------55555555----------------------------|
E|-------------------------------------------------------------------------|

Outro
6.
G|-------------------------------------|
D|-------------------------------------|
A|-33333333-33333333-33333333-33333333-|
E|-------------------------------------|

Verse
"Across the night I saw your face..."
7.
G|-------------------------------------------------------------------------|
D|-------------------------------------------------------------------------|
A|-33333333-33333333-33333333-33333333-33333333-33333333-33333333-33333333-|
E|-------------------------------------------------------------------------|

"Inside the image of your light..."
8.
G|-------------------------------------------------------------------------|
D|-----------------------------------------------------------------7744----|
A|-33333333-33333333-33333333-33333333-33333333-33333333-33333333-3----666-|
E|-------------------------------------------------------------------------|

Break
9.
G|----------------4-5-7-5-5-5-5-5-4-2---------------------------|
D|-33333333-555-7---------------------3333333-55553333-22220000-|
A|--------------------------------------------------------------|
E|--------------------------------------------------------------|

Chorus
"Twilight..."
10.
G|-------------------------------------------------------------------------|
D|-------------------33333333-33333333----------33333333-55555555-99999999-|
A|-33333333-33333333-------------------55555555----------------------------|
E|-------------------------------------------------------------------------|

Outro
11.
G|--------------------------------------------------|
D|--------------------------------------------------|
A|-33333333-33333333-33333333-33333333-331----------|
E|----------------------------------------4~--------|

Bridge
"You brought me here..."
12.
G|-----------------------------|
D|-----------------------------|
A|-0~--------------------------|
E|-------4~----3~----2~--------|

Pre-Chorus
"With your head held high..."
13.
G|-------------------------------------------------------|
D|-33333333-55555555----------33333333-55553333-22220000-|
A|-------------------33333333----------------------------|
E|-------------------------------------------------------|

Chorus
"Twilight..."
14.
G|-------------------------------------------------------------------------|
D|-------------------33333333-33333333----------33333333-55555555-99999999-|
A|-33333333-33333333-------------------55555555----------------------------|
E|-------------------------------------------------------------------------|

15.
G|-------------------|
D|-------------------|
A|-33333333-33333333-|
E|-------------------|

"Twilight..."
16.
G|-------------------------------------------------------------------------|
D|-------------------33333333-33333333----------22222222-33333333-33333333-|
A|-33333333-33333333-------------------33333333----------------------------|
E|-------------------------------------------------------------------------|

"Twilight..."
17.
G|-------------------------------------------------------------------------|
D|-------------------------------------------------------------------------|
A|-33333333-11111111-00000000----------33333333-11111111-00000000----------|
E|----------------------------44444444----------------------------44444444-|

Outro
18.
G|----------------------|
D|----------------------|
A|-331------------------|
E|----4~----------------|


Please rate thanks!!


Lyrics:

The visions dancing in my mind 
The early dawn, the shades of time 
Twilight crawling through my windowpane 
Am I awake or do I dream? 
The strangest pictures I have seen 
Night is day and twilight's gone away

With your head held high and your scarlet lies 
You came down to me from the open skies 
It's either real or it's a dream 
There's nothing that is in between...

Twilight, I only meant to stay awhile 
Twilight, I gave you time to steal my mind 
Away from me.

Across the night I saw your face 
You disappeared without a trace 
You brought me here, but can you take me back? 
Inside the image of your light 
That now is day and once was night 
You lead me here and then you go away.

(You brought me here, but can you take me back again?)



+++++++++++
| Raileff |
+++++++++++
Suggest correction
Give kudos to tab author, rate the tab!
1 2 3 4 5
comments
print report bad tab
guest
You may want to rate the tab now too:
select rating
Wanna post a correction for this tab? Suggest correction