Oops, an error
Loading. Please wait.

Kamiakin tab

100 views 1 this week
1 commentread comment
1 2 3 4 5
2 more votes to show rating
add to favorites
×
Save as Personal and add changes to this tab that will be seen only by you. Learn more ›
×
You can save this tab as Personal to edit and correct it or add notes. All changes will be seen only by you. Learn more »
launch autoscroll
font size
0
reset
how to read this tab
guitar tuner
edit
Autoscroll
slow
fast
+/-
esc
set tempo
stop
Author
Kamiakin
Electric Owls

Tune all strings 1/2 down

Intro: Verse:

eb-0--0---0--0--0---|
Bb-0---0---0-0---0--|
Gb-2-----2---2----2-|
Db-3-----3---3------|
Ab-3-----3---3------|
Eb-0h1-------0h1----|

("Except for...")

eb-0-0---1-1--0-0---0-|
Bb-0--0--1-1--1--1--1-|
Gb-0-----2-2--0-----2-|
Db-2-----3----2-----2-|
Ab-2-----3----3-----0-|
Eb-0-----1----x-----x-|

 
Chorus:
          Em             F
Have you ever seen the delta queen?
       C            Dm            Am

The loviliest place I have ever been
       Em                F

Where trees connect and block the sky
     C                 Dm               Am

And you don't know how you got there or why
       Em Dm    Am

But it sure is nice
Suggest correction
Creating personal tab
Creating personal tab
You can edit any tab online and save it as your Personal.

You can edit, replace or remove any tab part or add personal notes – all changes will be seen only by you.

Personal tabs can be accessed anytime from any device, even offline.
Learn more »
Give kudos to tab author, rate the tab!
1 2 3 4 5
comments
print report bad tab
1 comment total.
0 reply
_Batman_ 21 Apr 26, 2010 07:46 PM

I don't know man...doesn't sound just right...and its a bit incomplete.
I didn't try the chords, so I don't know if those are right or not, but I think the intro is more like this

tuned down to eb

eb|--0----0---0------0----0-----|
Bb|--0----0----0--0--0----------|
Gb|--3h4--4--3---3---3h4----3---|
Db|--3----4----------4----------|
Ab|-----------------------------|
Eb|-----------------------------|

e|--0----0--------------0----0-------|
B|--0----0----4---------0----0---4---|
G|--3h4--4--3---4-3-4---3h4--4-----3-|
D|--3----4--------------4----4-------|
A|-----------------------------------|
E|-----------------------------------|

maybe one of those will work....they sound a little closer to me

guest
You may want to rate the tab now too:
select rating
Wanna post a correction for this tab? Suggest correction