Oops, an error
Loading. Please wait.

Danger High Voltage Bass Tab

version 2
version 2

Whole song

Interactive

3,232 views 3 this week
no commentswrite comment
1 2 3 4 5
3 more votes to show rating
add to favorites
launch autoscroll
font size
0
reset
guitar tuner
Autoscroll
slow
fast
+/-
esc
set tempo
stop
Help us to improve Ultimate-Guitar.com Take our survey!
×
Author
Difficulty
-------------------------------------------------------------------------------
                             Danger! High Voltage - Electric Six
-------------------------------------------------------------------------------
Album : Fire


Tuning: Standard

Smorgasbord Plays the song like this 
with the live chorus below.

Verse/Chorus (As Verified on the Manchester Club Academy 
01/12/2011 Video)
G|-------------------------------------------|
D|----9---9---9---9----12----12----12----12--|
A|-------------------------------------------|
E|--7---7---7---7---10----10----10----10-----|

G|-------------------------------------------|
D|-----14----14----14----14---9---9---6---7--|
A|-------------------------------------------|
E|--12----12----12----12----7---7---4---5----|

Live Chorus (As Verified on the Manchester Club Academy 
01/12/2011 Video)
G|-------------------------------------------|
D|-------------------------------------------|
A|-------------------------------------------|
E|-7-7-7-7-7-7-7-7-10-10-10-10-10-10-10-10---|

G|--------------------------------------------|
D|-----------------------------------6---7----|
A|--------------------------------------------|
E|--12-12-12-12-12-12-12-12-7-7-7-7-4---5-----|




| /  slide up
| \  slide down
| h  hammer-on
| p  pull-off
| ~  vibrato
| +  harmonic
| x  Mute note
===============================================================================
Suggest correction
Give kudos to tab author, rate the tab!
1 2 3 4 5
comments
print report bad tab
guest
You may want to rate the tab now too:
select rating
Wanna post a correction for this tab? Suggest correction