Oops, an error
Loading. Please wait.

Future Boys Bass Tab

151 views 1 this week
no commentswrite comment
1 2 3 4 5
3 more votes to show rating
add to favorites
launch autoscroll
font size
0
reset
guitar tuner
Autoscroll
slow
fast
+/-
esc
set tempo
stop
Help us to improve Ultimate-Guitar.com Take our survey!
×
Author
Difficulty
-------------------------------------------------------------------------------
                           Future Boys - Electric Six
-------------------------------------------------------------------------------
Album: Señor Smoke
Tabbed by: CSA
E-mail: Sounderoxner@gmail.com

Tuning:Standard

Verse (0:12)

G|-----------------------------------------------------------------------|
D|-----------------------------------------------------------------------| X5
A|--5-5------8-8-3333-5-5---------3333-----------------------------------|
E|------5555--------------5-5-1-1----------------------------------------|

G|--------------------------------------------------------------------------|
D|--------------------------------------------------------------------------|
A|--5-5------8-8-3333----------3-3-3-3--------------------------------------|
E|------5555----------5-5-5-55----------------------------------------------|

G|-----------------------------------------------------------------------|
D|-----------------------------------------------------------------------| X2
A|--5-5------8-8--3-3--5-5------------3-3--------------------------------|
E|-------5-5----------------5-5--1-1-------------------------------------|

Chorus
G|-----------------------------------------------------------------------|
D|-----------------------------------------------------------------------| X3
A|----------------------------------3-3-3-3-3-3-3-3-0-0-0-0-0-0-0-0------|
E|--0-0-0-0-0-0-0-0-1-1-1-1-1-1-1-1--------------------------------------|

Or If you want you could add the bass side of the synth

G|------------------------------------------0------------0------------------|
D|--------------------------------------------2--------2---2----------------|
A|--------------------------------3-3-3-3-3-----3-0--3----------------------|
E|--0-0-0-0-0-0-0-0-1-1-1-1-1-1-1----------------------------0-0-0-0-0-0-0-0|

G|---------------------------------------------------------------|
D|---------------------------------------------------------------|
A|----------------3-3-3-3-3-3-3-3-0-0-0-0-0-0-0-0----------------|
E|1-1-1-1-1-1-1-1---------------------------------0-0-0-0-0-0-0-0|

G|--------------------------0------------0---0-------------------|
D|----------------------------2--------2---2---------------------|
A|----------------3-3-3-3-3-----3-0--3---------------------------|
E|1-1-1-1-1-1-1-1------------------------------------------------|

"Future Boys Will be Future Boys"
G|-----------------------|
D|-----------------------|
A|----------00--33-------|
E|--1-1-1-1--------------|

G|-----------------------------------------------------------------------|
D|-----------------------------------------------------------------------| X2
A|--5-5------8-8-3333-5-5---------3333-----------------------------------|
E|------5555--------------5-5-1-1----------------------------------------|

Verse 2
G|-----------------------------------------------------------------------|
D|-----------------------------------------------------------------------| X3
A|--5-5------8-8-3333-5-5---------3333-----------------------------------|
E|------5555--------------5-5-1-1----------------------------------------|

G|--------------------------------------------------------------------------|
D|--------------------------------------------------------------------------|
A|--5-5------8-8-3333----------3-3-3-3--------------------------------------|
E|------5555----------5-5-5-55----------------------------------------------|

G|-----------------------------------------------------------------------|
D|-----------------------------------------------------------------------| X2
A|--5-5------8-8--3-3--5-5------------3-3--------------------------------|
E|-------5-5----------------5-5--1-1-------------------------------------|

Chorus

Outro
"Future Boys Will be Future Boys"
G|-----------------------| G|--------------------------------------------|
D|-----------------------| D|--------------------------------------------| X3
A|----------00--33-------| A|--5-5------8-8-3333-5-5---------3333--------|
E|--1-1-1-1--------------| E|------5555--------------5-5-1111------------|

G|-----------------------|
D|-----------------------|
A|----------00--33-------|
E|--1-1-1-1--------------|



| /  slide up
| \  slide down
| h  hammer-on
| p  pull-off
| ~  vibrato
| +  harmonic
| x  Mute note
===============================================================================
Suggest correction
Give kudos to tab author, rate the tab!
1 2 3 4 5
comments
print report bad tab
guest
You may want to rate the tab now too:
select rating
Wanna post a correction for this tab? Suggest correction