Oops, an error
Loading. Please wait.

Gay Bar Tab

version 2
version 2
22,063 views 9 this week
2 commentsread comments
1 2 3 4 5
x 15
add to favorites
launch autoscroll
font size
0
reset
how to read this tab
guitar tuner
×
Best way to learn
"Gay Bar"
Autoscroll
slow
fast
+/-
esc
set tempo
stop
SONG: Gay Bar
ARTIST: Electric Six
TABBED BY: ElviZ
EMAIL: off_the_deep_end@hotmail.com
DESCRIPTION: Ok this is an accurate version of Gay bar that I
have tabbed. It includes all of the solo's. Although i hasten to add
that the second last solo bit he never plays the same twice, so
mess around with it :D.


MAIN RIFF:

 GUITAR ONE:
e|---------------------------------------------------|
B|---------------------------------------------------|
G|---------------------------------------------------|
D|------- 0-0-3-5-3-0--------------------------------|
A|------------------------- 4-3-3-0-0-3-4-0 ---------|
E|---------------------------------------------------|

 GUITAR TWO:
e|---------------------------------------------------|
B|---------------------------------------------------|
G|-------7-7-7-7-7-7-5-5-5-5-5-5-5-5 ----------------|
D|-------7-7-7-7-7-7-5-5-5-5-5-5-5-5 ----------------|
A|-------5-5-5-5-5-5-3-5-5-5-5-5-5-5 ----------------|
E|---------------------------------------------------|

FIRST SOLO:
- PART ONE:

e|---------------------------------------------------|
B|-------8889998888b9b9b9b9 -------------------------|
G|-------7778887777b8b8b8b8 -------------------------|
D|---------------------------------------------------|  x3
A|---------------------------------------------------|
E|---------------------------------------------------|

- PART TWO:

e|---------------------------------------------------|
B|-------8888898b9b9b9b9b9b9b9-----------------------|
G|-------7777787b8b8b8b8b8b8b8-----------------------|
D|---------------------------------------------------|
A|---------------------------------------------------|
E|---------------------------------------------------|

SECOND SOLO:

e|-------------------------------------------------|
B|-------15-15-15-15-15-15-13-13-13-13-13-13-13-13-|
G|-------14-14-14-14-14-14-12-12-12-12-12-12-12-12-|
D|-------------------------------------------------|  x4
A|-------------------------------------------------|
E|-------------------------------------------------|

THIRD SOLO:

e|-----------------------------|
B|------------------6-----6----|
G|-------5-5-5-7--7-7---5-7-5--|
D|-----------------------------|
A|-----------------------------|
E|-----------------------------|

OTHER BIT:

This is the bit you will have to improvise along to the song with as the
rythem is very complex (well acctually I cant be assed to tabb it). But
basically it is just:

B-------13-15-13-13-15-13

ORDER:

1) MAIN RIFF
2) FIRST SOLO
3) SECOND SOLO
4) MAIN RIFF
--- PAUSE ---
5) MAIN RIFF
6) THIRD SOLO
7) OTHER BIT

Comments, suggestions, email me!
Suggest correction
comments
print report bad tab
2 comments total.
0 reply
afirocker00 140 Feb 16, 2005 07:00 PM

Shut up Ug Stranger. Ok tab

0 reply
nagger97 10 Jul 05, 2009 01:23 PM

tab is okay
im not using it tho
lol

guest
You may want to rate the tab now too:
select rating
Wanna post a correction for this tab? Suggest correction