Oops, an error
Loading. Please wait.

Gay Bar Bass Tab

version 3
version 3

Whole song

786 views 1 this week
no commentswrite comment
1 2 3 4 5
please rate
add to favorites
launch autoscroll
font size
0
reset
guitar tuner
Tab Pro tools
  • play this tab
  • loop segment
  • change instrument
  • show fretboard
  • metronome
×
Best way to learn
"Gay Bar"
Autoscroll
slow
fast
+/-
esc
set tempo
stop
Contributor
Difficulty
advanced
-------------------------------------------------------------------------------
                             Gay Bar - Electric Six
-------------------------------------------------------------------------------
Album: Fire
Tabbed by: CSA
E-mail: Sounderoxner@gmail.com

Tuning:Standard


Intro

G|-------|      G|----------------------------------------------------------|
D|--/12--| X44  D|--12--10--------------------------------------------------|
A|-------|      A|---------12-10-8------------------------------------------|
E|-------|      E|----------------------------------------------------------|

Verse One                               Gay Bar Gay Bar Gay Bar  
G|--------------------------------|     G|----------------------------------|
D|--------------------------------| X3  D|----------------------------------|
A|--5-5-----3po0-3-3-0--0-3po0----|     A|--5-------------------------------|
E|------3/5-----------------------|     E|----------------------------------|

Let's Start A War                       Gay Bar Gay Bar Gay Bar
G|--------------------------------|     G|----------------------------------|
D|--------------------------------| X3  D|-----7--7/12--10------------------|
A|--5-5-----3po0-3-3-0--0-3po0----|     A|--5--------------12-10-8----------|
E|------3/5-----------------------|     E|----------------------------------|

Live, Keith plays the verse...
G|--------------------------------------------------------------------------|
D|----------------------------------3-5-3-----------------------------------|
A|--5-5-----3po0-3-3-0--0-3po0--5-5-------5-4-3--0-3-4-0--------------------|
E|------3/5-----------------------------------------------------------------|


G|--------------------------------------------------------------------------|
D|--------------------------------------------------------------------------|
A|--5-5-----3po0-3-3-0--0-3po0----------------------------------------------|
E|------3/5-----------------------------------------------------------------|

Solo A                                                    At the Gay Bar
G|-------------------------------|      G|----------------------------------|
D|-------------------------------| X3   D|----------------------------------|
A|--5--5po-5-5--3----3--3---3----|      A|--5--5po-5-5--3----3-----3--------|
E|-----------------3------5---5--|      E|-----------------3---3/5---5------|

Solo B
G|-------------------------------|
D|-------------------------------| X3
A|--5--5--5-5--3--3-3--3-3-3-3---|
E|-------------------------------|

Live, Keith plays the solo...
G|------------------------------------------5-----6------7-5----------------|
D|---------------------------------3-------------------------7-6-5-3--------|
A|--5-5------3---------3h5-5-5-3h5---5-3-3----3-4----4-5-------------5-3----|
E|-------3/5---1--3--5------------------------------------------------------|

G|--------------------------------------|  G|----------------------------|
D|---------------------3----------------|  D|----------------------------| X4
A|----------3-5--5-3-5---5-0-3--3-3-----|  A|5--5-5-5-5--3--3-3--3-3-3-3-|
E|--1--3--5-------------------------5/\-|  E|----------------------------|


Verse Two                               Gay Bar Gay Bar Gay Bar  
G|--------------------------------|     G|----------------------------------|
D|--------------------------------| X3  D|----------------------------------|
A|--5-5-----3po0-3-3-0--0-3po0----|     A|--5--0-5--0-5--0-5--0-5po0-5------|
E|------3/5-----------------------|     E|----------------------------------|


G|--------------------------------|
D|--------------------------------|     
A|--3----3----3----3----3---3--5--|
E|-----3----3----3----3---3-------|

Guitar Intro Break

Live, Keith plays Verse Two...
G|--------------------------------------------------------------------------|
D|----------------------------------3-5-3-----------------------------------|
A|--5-5-----3po0-3-3-0--0-3po0--5-5-------5-4-3--0-3-4-0--------------------|
E|------3/5-----------------------------------------------------------------|

G|--------------------------------------------------------------------------|
D|--------------------------------------------------------------------------|
A|--5-5-----3po0-3-3-0--0-3po0-5-5-5-8-8-8-7-7-7-6-6-6-6-6-4-4--------------|
E|------3/5----------------------------------------------------8-8-8-7-7-7--|

G|--------------------------------------------------------------------------|
D|--------------------------------------------------------------------------|
A|----------------------5---------------------------------------------------|
E|--6-6-6-5-5-5-4po0-3------------------------------------------------------|

Guitar Intro Break

Verse 2

Solo A X2

Solo B

G|--------------------------------|
D|--------------------------------|
A|--5--5--5-5--3--3-3--3-3-3-3--5-|
E|--------------------------------|

Live, Keith plays the verse/Outro...
G|--------------------------------------------------------------------------|
D|----------------------------------3-5-3-----------------------------------|
A|--5-5-----3po0-3-3-0--0-3po0--5-5-------5-4-3--0-3-4-0--------------------|
E|------3/5-----------------------------------------------------------------|


G|----------------------------------------7--5------------------------------|
D|------------------------------------3-5------7-6--5-3--------3-------3-3-3|
A|--5-5-----3po0-3-3-0--0-3po0--5-5-5--------------------3-3-3----3--5------|
E|------3/5-----------------------------------------------------------------|

Solo A
G|-----------------5------6------7-5----------------------------------------|
D|-----3---3-5-----------------------7-6-5-3----------------------3---------|
A|--5----5------3-----3-4----4-5-------------5-3---------5-5--3-5---5-3-3---|
E|-----------------------------------------------1--3--5--------------------|

G|--------------------------------------------------------------------------|
D|--------------------------------------------------------------------------|
A|--3-3--4--5---------3--3-3------------------------------------------------|
E|------------0-3/5-1--------2/\--------------------------------------------|

G|----------------------------|     G|--------------------------------------|
D|----------------------------| X3  D|--------------------------------------|
A|--5--5--5-5--3--3--3-3-3-3--|     A|--5--5--5-5--3--3---------------------|
E|----------------------------|     E|------------------2/\-----------------|

G|-----------------------------|     G|-------------------------------------|
D|-----------------------------| X3  D|-------------------------------------|
A|--5--5-5-5-5--3--3-3--3-3-4-4|     A|--5--5-5-5-5--3--3--3--4--5----------|
E|-----------------------------|     E|-------------------------------------|

| /  slide up
| \  slide down
| h  hammer-on
| p  pull-off
| ~  vibrato
| +  harmonic
| x  Mute note
===============================================================================
comments
We did not receive enough feedback on this tab! Please rate:
print report bad tab
1 2 3 4 5
I want to post or [tab]
guest
You may want to rate the tab now too:
select rating
Please do not post tabs as comments. Select "correction" instead!