Oops, an error
Loading. Please wait.

Gay Bar Tab

version 3
version 3
26,454 views 66 this week
3 commentsread comments
1 2 3 4 5
x 5
add to favorites
launch autoscroll
font size
0
reset
how to read this tab
guitar tuner
Autoscroll
slow
fast
+/-
esc
set tempo
stop
Help us to improve Ultimate-Guitar.com Take our survey!
×
Author
Electric 6  Gay Bar
Standard Tuning
Tabbed by Tom Warren


[Intro and Main Riff]

e|--------------------------------|
B|--------------------------------|
G|--------------------------------|
D|-------3-5-3--------------------|
A|---5-5-------5-4-3-3-----3-3-4--|
E|---------------------5-5--------|


[Solo 1]

e|-----------------------------------------------|
B|-----------------------------------------------|
G|-----------------------------------------------|
D|---17-17-17-19b-17-17-17-19-17-19-17-19-17-----|
A|-----------------------------------------------|
E|-----------------------------------------------|(x4)


[Next Bit]

e|-------------------------------------------------------------|
B|-------------------------------------------------------------|
G|--7-7-7-7-7-7-5-5-5-5-5-5-5-5-------on 4th-----7----on end---|
D|--7-7-7-7-7-7-5-5-5-5-5-5-5-5-------time play--7-------------|
A|--5-5-5-5-5-5-3-3-3-3-3-3-3-3------------------5-------------|
E|-------------------------------------------------------------|(x4)


[Main Riff]

e|-----------------------------------------------|
B|-----------------------------------------------|
G|-----------------------------------------------|
D|-------3-5-3-----------------------------------|
A|---5-5-------5-4-3-3-----3-3-4-----------------|
E|---------------------5-5-----------------------|(a few times)

Then:
e|----------------------------------|
B|----------------------------------|
G|--7-7-7-7-7-7-5-5-5-5-5-5-5-5-7---|
D|--7-7-7-7-7-7-5-5-5-5-5-5-5-5-7---|
A|--5-5-5-5-5-5-3-3-3-3-3-3-3-3-5---|
E|----------------------------------|

Pause then:
e|-----------------------------------------------|
B|-----------------------------------------------|
G|-----------------------------------------------|
D|-------3-5-3-----------------------------------|
A|---5-5-------5-4-3-3-----3-3-4-----------------|
E|---------------------5-5-----------------------|

Then:
e|----------------------------------|
B|----------------------------------|
G|--7-7-7-7-7-7-5-5-5-5-5-5-5-5-7---|
D|--7-7-7-7-7-7-5-5-5-5-5-5-5-5-7---|
A|--5-5-5-5-5-5-3-3-3-3-3-3-3-3-5---|
E|----------------------------------|


[Solo 2]

e|------------------------------------------|
B|------------------------------------------|
G|------------------------------------------|
D|-------------12-15-12-12-15-12----12------|
A|-15-15-15-15-------------------15----15---|
E|------------------------------------------|

e|------------------------------------------|
B|------------------------------------------|
G|------------------------------------------|
D|-------------12-15-12-12-15-12----12------|
A|-15-15-15-15-------------------15----15-12|
E|------------------------------------------|

e|------------------------------------------|
B|------------------------------------------|
G|------------------------------------------|
D|-------------12-15-12-12-15-12----12------|
A|-15-15-15-15-------------------15----15-12|
E|------------------------------------------|

e|---------------------------------------------|
B|---------------------------------------------|
G|-------------------12b-12b-12b-12b-12b-12fb--|
D|-------------12-15---------------------------|
A|-15-15-15-15---------------------------------|
E|---------------------------------------------|

e|-----------------------------------------------|
B|-----------------------------------------------|
G|--19b-19-19-19-19-19-17b-17-17-17-17-17-17-17--|
D|-----------------------------------------------|
A|-----------------------------------------------|
E|-----------------------------------------------|


[Ending]

e|-------------------------------------2----|
B|-------------------------------------3----|
G|--7-7-7-7-7-7-5-5-5-5-5-5-5-5/-------2----|
D|--7-7-7-7-7-7-5-5-5-5-5-5-5-5/------------|
A|--5-5-5-5-5-5-3-3-3-3-3-3-3-3/------------|
E|------------------------------------------|



************************************

| b  Bend
| /  Slide up

************************************
Suggest correction
comments
print report bad tab
3 comments total.
0 reply
[a]MUSE 91 Feb 17, 2006 11:56 AM

hey dude, the finish chord on the outro is tabbed on the bottom 3 strings other than the top you ****

0 reply
Edby 20 Oct 11, 2008 01:05 PM

oh yeah it sounds a lot better played like that lol
Ive definitely learned a lot from this tab definitely the best there is.
just a bit more detail on the structure needed also fix that last chord

0 reply
nagger97 10 Jul 06, 2009 11:22 AM

purrfect lol
almost any way

guest
You may want to rate the tab now too:
select rating
Wanna post a correction for this tab? Suggest correction