Oops, an error
Loading. Please wait.
We have an official Gay Bar tab made by UG professional guitarists. Check out the tab »
×
4,895 views 45 this week
4 commentsread comments
1 2 3 4 5
x 9
add to favorites
launch autoscroll
font size
0
reset
how to read this tab
guitar tuner
backing track
0:00
0:00
Autoscroll
slow
fast
+/-
esc
set tempo
stop
Author
Tuning: Normal (EADGBe)

Main Riff
e--------------------------------------------------
B--------------------------------------------------
G--------------------------------------------------
D---------15-17-15---------------------------------
A---17-17----------17-16-15-15-------15-16---------
E------------------------------17-17-------17------

Solo 1
----------------------------------------------------------------------------
----------------------------------------------------------------------------
--14-14-14-13-13-12-12-12-12-12-PLAY----19-19-19-18b-17-17-17-17-17--PLAY---
--14-14-14-13-13-12-12-12-12-12-FOUR---------------------------------FOUR---
--------------------------------TIMES--------------------------------TIMES--
----------------------------------------------------------------------------

Solo 2
--------------------------------------------------------------------------
--------------------------------------------------------------------------
-----------------------------------------PLAY-----------------------------
----------15-17-15-----------------------THREE------------15-17-15-17b----
-17-17-17----------17-17-17-17-15-15-15--TIMES---17-17-17-----------------
--------------------------------------------------------------------------

(#1)WHEN HE REPEATS "GAY BAR" MANY TIMES PLAY
---------------------------------------------------------------------------
---------------------------------------------------------------------------
---------------------------------------------------------------------------
--17-17-17-17-17-15-15-15-15-15--------------------------------------------
---------------------------------------------------------------------------
---------------------------------------------------------------------------
AS MANY TIMES AS NEEDED

(#2)
---------------------------------------------------------------------------
---------------------------------------------------------------------------
-19-19-19-18b-17-17-17-17-17--PLAY----------------------------------PLAY---
------------------------------FOUR----17-17-17-17-17-15-15-15-15-15-FOUR---
------------------------------TIMES---------------------------------TIMES--
---------------------------------------------------------------------------

ENDING
---------2------
---------3------
---------2------
---------0------
--17------------
----------------
        (D)

Main Riff x10
Solo1 x1
Main Riff x3
(#1) x1
Main Riff x7
(#1) x1
Solo2 x1
(#2) x1
Ending


If you want any GOOD tabs I might know them (don't get your hopes up too high) so e-mail me at:
Pro_Arsonist@hotmail.com

ALWAYS REMEBER: PUNK MUSIC SUCKS. BUY ALBUMS BY INME, ELECTRIC SIX, PENNYWISE,
FOO FIGHTERS AND PLACEBO ECT. LISTEN TO THEM AND LEARN FROM THE BEST.

NEVER BUY MUSIC BY NEW FOUND GLORY, AMERICAN HI-FI AND SUGARCULT.
IF YOU DO BURN THEM NOW!!!!!!!!!!!!!

Dan THE Man(iac)
Suggest correction
comments
print report bad tab
4 comments total. Showing first comments.
0 reply
Rankles 584 Oct 12, 2003 08:00 PM

No no no, the intros like an entire octave too high.

0 reply
koolmosher 70 Oct 12, 2003 08:00 PM

And the solos are wrong

0 reply
korn_freak 10 Oct 14, 2003 08:00 PM

No you have dun it all rong its all to hight and on the rong threts (u can tell u ant been play the guitar very long )

E|----------------------------|
B|----------------------------|
G|----------------------------| Main riff
D|-0-0-3-5-3-0----------------|
A|------------4-3-3-0-0-4-----|
E|----------------------------|

guest
You may want to rate the tab now too:
select rating
Wanna post a correction for this tab? Suggest correction